Song name
# A B C D E F G H I J K L M N O P Q R S T U V W X Y Z

The Confession - Through These Eyes tab

The Confession - Through These Eye intro
By: Jeroen@excessum.nl

e|-------17-------17-------12-15-13----------18-------18-------12-15-13-|
B|-------------15-------15----------15-15-----------15------15----------|
G|----14----14-------14-------------------15-----15------15-------------|
D|----------------------------------------------------------------------|
A|-17-------------------------------------------------------------------|
D|----------------------------------------------------------------------|


e|-------17-------17-------12-15-13----------------------------------------13-15-17-|
B|-------------15-------15----------15-------18----18-17-15-------15----15----------|
G|----14----14-------14----------------15-15----15----------14-14----14-------------|
D|----------------------------------------------------------------------------------|
A|-17-------------------------------------------------------------------------------|
D|----------------------------------------------------------------------------------|


e|-------17-------17-------12-15-13----------18-------18-------12-15-13-|
B|-------------15-------15----------15-15-----------15------15----------|
G|----14----14-------14-------------------15-----15------15-------------|
D|----------------------------------------------------------------------|
A|-17-------------------------------------------------------------------|
D|----------------------------------------------------------------------|


e|-------17-------17-------12-15-13----------------------------------------13-15-17-|
B|-------------15-------15----------15-------18----18-17-15-------15----15----------|
G|----14----14-------14----------------15-15----15----------14-14----14-------------|
D|----------------------------------------------------------------------------------|
A|-17-------------------------------------------------------------------------------|
D|----------------------------------------------------------------------------------|


Final
e|-17-15-13-12----13-13-|
B|-------------13-------|
G|----------------------|
D|----------------------|
A|----------------------|
D|----------------------|
Tap to rate this tab
# A B C D E F G H I J K L M N O P Q R S T U V W X Y Z