Song name
# A B C D E F G H I J K L M N O P Q R S T U V W X Y Z

The Confession - Wasting Away tab

-------------------------------------------------------------------------------
			     Wasting Away - The Confession
-------------------------------------------------------------------------------
Tabbed by: Bryce Clifton
Email: Hellraiserc13@aol.com

Tuning:D G C F A D


Tune your guitar, then play choords as if they your guitar was standard tuned.         

     E Minor .....   C Major .....   Repeat a couple times
     A Minor         C Major         C Diminshed (Slow part before fade out)

  P.M.____        ____          _____         ______  
D|---------------------------------------------------------------------------|
A|---------------------------------------------------------------------------|
F|---------------------------------------------------------------------------|
C|---------------------------------------------------------------------------|
G|----------7-5-7-------10-9-10-------12---12----------14----14--------------|
D|----0-0-0-------0-0-0---------8-8-8----8----10-10-10----10-----------------|



 P.M._____        ____          _____         
D|---------------------------------------------------------------------------|
A|---------------------------------------------------------------------------|
F|---------------------------------------------------------------------------|
C|---------------------------------------------------------------------------|
G|----------7-5-7-------10-9-10-------12-12-12-10-10-10-9-9-9----------------|
D|----0-0-0-------0-0-0---------8-8-8----------------------------------------|



| /  slide up
| \  slide down
| h  hammer-on
| p  pull-off
| ~  vibrato
| +  harmonic
| x  Mute note
===============================================================================
Tap to rate this tab
 
# A B C D E F G H I J K L M N O P Q R S T U V W X Y Z