Guitaretab - guitar tabs
Song name
# A B C D E F G H I J K L M N O P Q R S T U V W X Y Z

The Confession - Time Is Gone tab

Intro:

Guitar 1:
|----------------------------------------------------------------------------|
|----------------------------------------------------------------------------|
|--------15--------------------15-----19-17-15--15-17---------17-15----------|
|---15-17--17-15-17-17----15-17--17-15--------19---------15-17-----17-15-15--|
|-17--------------------17-----------------------------15--------------------|
|----------------------------------------------------------------------------|
[ Tab from: http://www.guitaretab.com/t/the-confession/187290.html ]
 --------------------------------------------------18p15h18-----------------|
 ---------------------------------------------------------------------------|
 --------17-15--15p14--------12-------15--------------------------15-----19-|
 ---15-17-----17-----17-12h15----15-17--17-15-17-17----------15-17--17-15---|
 -15---------------------------17--------------------------17---------------|
 ---------------------------------------------------------------------------|

 ---------------------------------------------------------------------------|
 ---------------------------------------------------------------------------|
 -17-15--15-17---------17-15----------------17-15--15p14--------12----------|
 ------19---------15-17-----17-15-15---15-17-----17-----17-12h15------------|
 ---------------15-------------------15-------------------------------------|
 ---------------------------------------------------------------------------|
Related for Time Is Gone tab