Guitaretab - guitar tabs
Song name
# A B C D E F G H I J K L M N O P Q R S T U V W X Y Z

The Confession - Burn The Virgin tab

----------------------------------------------------------------------------
		Burn The Virgin Solo - The Confession
----------------------------------------------------------------------------
Tabbed by:Ryanshopefan1
Email:Guitplayer14@hotmail.com

Tuning:DAFCGC

I Got Bored One Night And Decided To Tab This Out. It's All Pretty Easy Excspt The Sweep 
It's An Awesome Solo. Have Fun. P.S. Rate It Please!

D|-------------------------------------------------------------------------|
A|-------------------------------------------------------------------------|
F|-------10----10----12b14~~~--------10----12--b14r~~~---------------------|
C|-10h12----12----12-----------10h12----12---------------------------------|
G|-------------------------------------------------------------------------|
C|-------------------------------------------------------------------------|

D|---------------------------------13--------------------------------------|
A|----------10---------------13b15----(13)r-10-13-10-----------------------|
F|-7h9-9b10----(9)rp7-9~~~---------------------------12-10----10-12b14~~---|
C|---------------------------------------------------------12--------------|
G|-------------------------------------------------------------------------|
C|-------------------------------------------------------------------------|

D|-----10h13-13~~-10-13-13-15-15b17-20-17-15-13-13h15~~~-------------------|
A|-/13---------------------------------------------------------------------|
F|-------------------------------------------------------------------------|
C|-------------------------------------------------------------------------|
G|-------------------------------------------------------------------------|
C|-------------------------------------------------------------------------|
[ Tab from: http://www.guitaretab.com/t/the-confession/96665.html ]
D|-----13-15-20b22r-18--15b17-slow-release-13~~~---------------------------|
A|-/15---------------------------------------------------------------------|
F|-------------------------------------------------------------------------|
C|-------------------------------------------------------------------------|
G|-------------------------------------------------------------------------|
C|-------------------------------------------------------------------------|

D|-------------------------------------------------------------------------|
A|-------------------------------------------------------------------------|
F|-14/15-14\12-14\10~~~----------------------------------------------------|
C|-------------------------------------------------------------------------|
G|-------------------------------------------------------------------------|
C|-------------------------------------------------------------------------|
            T                 T                 T                 T
D|-------17h22p17----------17h22p17----------17h22p17----------17h22p17----|
A|-----18--------18------18--------18------18--------18------18------------|
F|---17------------17--17------------17--17------------17--17--------------|
C|-20----------------20----------------20----------------20----------------|
G|-------------------------------------------------------------------------|
C|-------------------------------------------------------------------------|

D|----------/20-17----17---------------------------------------------------|
A|-18--------------20----18~~~~~-------------------------------------------|
F|---17--------------------------------------------------------------------|
C|-----20------------------------------------------------------------------|
G|-------------------------------------------------------------------------|
C|-------------------------------------------------------------------------|

 That's It.

| /  Slide Up
| \  Slide Down
| h  Hammer-On
| p  Pull-Off
| ~  Vibrato
| *  Harmonic
| x  Mute Note
| b  Bend
| r  Realease Bend
|()  Note Is Pre-Bent
============================================================================
Related for Burn The Virgin tab