Song name
# A B C D E F G H I J K L M N O P Q R S T U V W X Y Z

The Connels - 74 - 75 tab

Hi, I play it this way..sounds good 2 me and it is less hard to play. Friendly grtz!


|-----------------4h2-------------------------------------------------|
|---4h2-----4h2------4--4-4/7-----------------------------------------|
|------4-------4---------------3h4-4-3---4-3-4-3---------3h4-3--------|
|------------------------------------------------4--4h6--------6--4h6-|
|---------------------------------------------------------------------|
|---------------------------------------------------------------------|


|----------------4h2------4h2---4h2---------------------|
|--4h2-----4h2------4--4-----4-----4--0---4/5-4---------|
|-----4-------4-----------------------------------4-3-1-|
|-------------------------------------------------------|
|-------------------------------------------------------|
|-------------------------------------------------------| 
Tap to rate this tab
 
# A B C D E F G H I J K L M N O P Q R S T U V W X Y Z