Song name
# A B C D E F G H I J K L M N O P Q R S T U V W X Y Z

The Constantines - Hyacinth Blues tab

----------------------------------------------------------------------------
			     Hyacinth Blues - The Constantines
----------------------------------------------------------------------------
Tabbed by:deHufter
Email:kurtkill@hotmail.com

Tuning:standard

Guitar 1 with delay:
e|--------------------------------------------------------------------------|
B|--------------------------------------------------------------------------|
G|--------------------------------------------------------------------------|
D|---5~---------------------------------------------------------------------|
A|--------------------------------------------------------------------------|
E|--------------------------------------------------------------------------|

e|--------------------------------------------------------------------------|
B|--------------------------------------------------------------------------|
G|--------------------------------------------------------------------------|
D|---3~-(5\)3---------------------------------------------------------------|
A|------------3~------------------------------------------------------------|
E|--------------------------------------------------------------------------|

Guitar 2 0:38:
e|--------------------------------------------------------------------------|
B|--------------------------------------------------------------------------|
G|--------------------------------------------------------------------------|
D|--5-5-5-5-5-5-5-5---------------------------------------------------------|
A|--------------------------------------------------------------------------|
E|--------------------------------------------------------------------------|
PM.................>

Guitar 1 1:04:
e|------------1-1-1---------------------------------------------------------|
B|------------3-3-3---------------------------------------------------------|
G|------------3-3-3---------------------------------------------------------|
D|--3-3-3-3-3--------repeat,then:--3~---------------------------------------|
A|--5-5-5-5-5-------------------------3~------------------------------------|
E|--3-3-3-3-3---------------------------------------------------------------|

From 1:20 play guitar 2 0:38 and guitar 1 with delay
Then play:
e|-----------(1-1-1)--------------------------------------------------------|
B|------------3-3-3---------------------------------------------------------|
G|------------3-3-3---------------------------------------------------------|
D|--3-3-3-3-3--------repeat,then:--3~-------3~------------------------------|
A|--5-5-5-5-5-------------------------3~-------3~---------------------------|
E|--3-3-3-3-3----------------------------3~---------------------------------|

Guitar 2:
e|--------------------------------------------------------------------------|
B|--/6-6-6-6\3-3------------------------------------------------------------|
G|--------------------------------------------------------------------------|
D|--------------------------------------------------------------------------|
A|--------------------------------------------------------------------------|
E|--------------------------------------------------------------------------|

Guitar 1 2:12:
e|-------------3/6-6-6-6\---------------------------------------------------|
B|--------------------------------------------------------------------------|
G|--------------------------------------------------------------------------|
D|--3-3-3-3-3---------------------------------------------------------------|
A|--5-5-5-5-5---------------------------------------------------------------|
E|--3-3-3-3-3---------------------------------------------------------------|

Guitar 2:
e|-------------1-1-1-1------------------------------------------------------|
B|-------------3-3-3-3------------------------------------------------------|
G|-------------3-3-3-3------------------------------------------------------|
D|--3-3-3-3-3---------------------------------------------------------------|
A|--5-5-5-5-5---------------------------------------------------------------|
E|--3-3-3-3-3---------------------------------------------------------------|

Repeat intro
Tap to rate this tab
 
# A B C D E F G H I J K L M N O P Q R S T U V W X Y Z