Song name
# A B C D E F G H I J K L M N O P Q R S T U V W X Y Z

The Constantines - Long Distance Four tab

---------------------------------------------------------------------------
			     Long Distance Four - The Constantines
---------------------------------------------------------------------------
Tabbed by:deHufter
Email:kurtkill@hotmail.com
Tuning:standard

Guitar 1 (0:00 - 0:34)
e|-----------------------------------------------------------------------|
B|--5-5-5-5-5-5-5-5-5-5-5-5-5-5-5-5---3-3-3-3-3-3-3-3-3-3-3-3-3-3-3-3----|
G|--7-7-7-7-7-7-7-7-7-7-7-7-7-7-7-7---4-4-4-4-4-4-4-4-4-4-4-4-4-4-4-4----|
D|-----------------------------------------------------------------------|
A|-----------------------------------------------------------------------|
E|-----------------------------------------------------------------------|

Guitar 2 (0:18 - 0:34)
e|---7-7-7-7----:---------7-------------:--------------------------------|
B|---x-x-x-x----:-----------------------:--------------------------------|
G|---7-7-7-7----:-7-----7---4---2--0----:--------------------------------|
D|---5-5-5-5----:----5----------------2-:--------------------------------|
A|--------------:-----------------------:--------------------------------|
E|--------------:-----------------------:--------------------------------|

Guitar 1 (0:34 - 0:48)
e|----3---3--------------------------------------------------------------|
B|------0---0-many-times-------------------------------------------------|
G|-----------------------------------------------------------------------|
D|-----------------------------------------------------------------------|
A|-----------------------------------------------------------------------|
E|-----------------------------------------------------------------------|

Guitar 2 (0:34 - 0:48)
e|-----------------------------------------------------------------------|
B|-----------------------------------------------------------------------|
G|--------5-4-5-4-5-4-2--0-----------------------------------------------|
D|-----------------------------------------------------------------------|
A|--3~----------------------3~-------------------------------------------|
E|-----------------------------------------------------------------------|

Guitar 1 (0:48 - 1:15)
e|-----------------------------------------------------------------------|
B|--5--5--5--5-----------------------------------------------------------|
G|--7--7--7--7-----------------------------------------------------------|
D|--5--5--5--5--many-times-----------------------------------------------|
A|-(5)(5)(5)(5)----------------------------------------------------------|
E|-----------------------------------------------------------------------|

Guitar 2 (0:48 - 1:15)
e|-----------------------------------------------------------------------|
B|-----------------------------------------------------------------------|
G|-----------------------------------------------------------------------|
D|--5--2-----2-----3---many-times,last-time-play:--5--2------------------|
A|--------3-----3----------------------------------------3~--------------|
E|-----------------------------------------------------------------------|

Guitar 3 (1:02 - 1:15)
e|-----------------------------------------------------------------------|
B|-----------------------------------------------------------------------|
G|--5p4--5p4\2----------0--2---------------------5p4--5p4\2--------------|
D|---------------0--2~----------last-time-play:--------------0--2~-------|
A|-----------------------------------------------------------------------|
E|-----------------------------------------------------------------------|

Then repeat 'Guitar 1 (0:00 - 0:34)' till 1:45
Also repeat 'Guitar 2 (0:18 - 0:34)' from 1:29 till 1:45 

From 1:45 till 1:59 repeat 'Guitar 1 (0:48 - 1:15)' and 
'Guitar 2 (0:48 - 1:15)'

Guitar 1 (1:59 - end)
e|----------------------------------------------------------------------|
B|---5-5-5-5-------------------------------5----------------------------|
G|---7-7-7-7--many-times,last-time-play:---7----------------------------|
D|---5-5-5-5-------------------------------5\2--------------------------|
A|----------------------------------------------------------------------|
E|----------------------------------------------------------------------|

Guitar 2 (2:09 - end)
e|--3---3---3---3-------------------------------------------------------|
B|----0---0---0---0-----------------------------------------------------|
G|----------------------------------------------------------------------|
D|----------------------------------------------------------------------|
A|----------------------------------------------------------------------|
E|----------------------------------------------------------------------|








Tap to rate this tab
 
# A B C D E F G H I J K L M N O P Q R S T U V W X Y Z