Guitaretab - guitar tabs
Song name
# A B C D E F G H I J K L M N O P Q R S T U V W X Y Z

The Constantines - You Are A Conductor tab

---------------------------------------------------------------------------
			     You are a conductor - The Constantines
---------------------------------------------------------------------------
Tabbed by:deHufter
Email:kurtkill@hotmail.com

Tuning:standard

Intro: (0:10 - 0:20)
e|--1~---1~---------------------------------------------------------------|
B|--1~---1~---------------------------------------------------------------|
G|--2~---2~---------------------------------------------------------------|
D|--3~---3~---------------------------------------------------------------|
A|--3~---3~---------------------------------------------------------------|
E|--1~---1~---------------------------------------------------------------|

Verse: (0:20 - 0:58)
e|--1~---1~----5~-----------------1~--------------------------------------|
B|--1~---1~----5~-----------------1~--------------------------------------|
G|--2~---2~----5~-----------------2~--------------------------------------|
D|--3~---3~----7~--2-times-then:--3~--------------------------------------|
A|--3~---3~----7~-----------------3~--------------------------------------|
E|--1~---1~----5~-----------------1~--------------------------------------|

Chorus: (0:58 - 1:17)
e|--5~---6~----5~----5~---6~---1~-----------------------------------------|
B|--6~---6~----5~----6~---6~---1~-----------------------------------------|
G|--7~---7~----6~----7~---7~---2~-----------------------------------------|
D|--7~---8~----7~----7~---8~---3~-----------------------------------------|
A|--5~---8~----7~----5~---8~---3~-----------------------------------------|
E|-------6~----5~---------6~---1~-----------------------------------------|

Guitar 1 (1:17 - 1:30)
e|----------------------5~------------------------------------------------|
B|----------------------5~------------------------------------------------|
G|------5--2~-------5---5~-------5----------------------------------------|
D|---5-----------5------7~----5-------------------------------------------|
A|----------------------7~------------------------------------------------|
E|----------------------5~------------------------------------------------|
[ Tab from: http://www.guitaretab.com/t/the-constantines/111877.html ]
Guitar 2 (1:17 - 1:30)
e|---------5~-----------5~------------------------------------------------|
B|--3--/6-------3--/6---5~---3--/6----------------------------------------|
G|----------------------5~------------------------------------------------|
D|----------------------7~------------------------------------------------|
A|----------------------7~------------------------------------------------|
E|----------------------5~------------------------------------------------|

Then repeat verse till 2:06
Then repeat chorus till 2:47

Then guitar 1 plays: (2:47 - 3:07)
e|-----------------------------------5~-----------------------------------|
B|-----------------------------------5~-----------------------------------|
G|------5--2~---------------------5--5~-----------------------------------|
D|---5---------3-times, then:--5-----7~-----------------------------------|
A|-----------------------------------7~-----------------------------------|
E|-----------------------------------5~-----------------------------------|

Guitar 2 (2:47 - 3:07)
e|----------5~-----------------------5~-----------------------------------|
B|---3--/6---------------------3--/6-5~-----------------------------------|
G|-------------3-times, then:--------5~-----------------------------------|
D|-----------------------------------7~-----------------------------------|
A|-----------------------------------7~-----------------------------------|
E|-----------------------------------5~-----------------------------------|

Guitar 1 (3:07 - 3:40)
e|------------------------------------------------------------------------|
B|------------------------------------------------------------------------|
G|-----5---2~--5--4~-----------------------5---2~-------------------------|
D|---5---5------------many-times,then:---5---5----------------------------|
A|------------------------------------------------------------------------|
E|------------------------------------------------------------------------|

Guitar 2 (3:07 - 3:40)
e|----------1~--1~-----------------------------5~-------------------------|
B|---3~-3~--1~--1~----------------------3~-3~--5~-------------------------|
G|----------2~--2~-----------------------------5~-------------------------|
D|----------3~--3~---many-times,then:----------7~-------------------------|
A|----------3~--3~-----------------------------7~-------------------------|
E|----------1~--1~-----------------------------5~-------------------------|



Related for You Are A Conductor tab