Song name
# A B C D E F G H I J K L M N O P Q R S T U V W X Y Z

The Constantines - Million Star Hotel tab

Help us improve GuitareTab! Take a short survey!
-------------------------------------------------------------------------
			Million Star Hotel - The Constantines
-------------------------------------------------------------------------
Tabbed by:deHufter
Email:kurtkill@hotmail.com

Tuning:standard

Guitar 1: (0:00 - 0:25)
e|--------------------------------------------------------------------------|
B|--9--9--10-10--9--9--10--10--9--9--10-10--7--7----------------------------|
G|--9--9--9--9---9--9--9---9---9--9--9--9---7--7--6-------------------------|
D|--9--9--9--9---9--9--9---9---9--9--9--9---7--7--7----4-times--then:-------|
A|--7--7--7--7---7--7--7---7---7--7--7--7---5--5--7-------------------------|
E|------------------------------------------------5-------------------------|

Guitar 1 (0:25 - 0:31)
e|--------------------------------------------------------------------------|
B|--9---------9--9---------9--9---------9---7--7----------------------------|
G|--9--12--12\9--9--12--12\9--9--12--12\9---7--7--6-------------------------|
D|--9--12--12\9--9--12--12\9--9--12--12\9---7--7--7--then-1-time-above-riff-|
A|--7--10--10\7--7--10--10\7--7--10--10\7---5--5--7-------------------------|
E|------------------------------------------------5-------------------------|

Guitar 2 (0:13 - 0:39)
e|--------------------------------------------------------------------------|
B|--------------------------------------------------------------------------|
G|----------------------12--12p11-------------------------------------------|
D|------------------2~------------12~---------------------------------------|
A|------------------2~------------------------------------------------------|
E|--0~--7/12--12~---0~------------------------------------------------------|

Guitar 1/high bass (0:39 - 1:31)
e|--------------------------------------------------------------------------|
B|--------------------------------------------------------------------------|
G|--------------------------------------------------------------------------|
D|---------7h9~--5h7~--9p7~-------------------------------------------------|
A|---5h7~-------------------------------------------------------------------|
E|--------------------------------------------------------------------------|

Guitar 2 (0:39 - 1:04)
e|--------------------------------------------------------------------------|
B|---15~-----15~------15~------15~------------------------------------------|
G|---13~-----13~------13~------13~------------------------------------------|
D|---14~-----14~------14~------14~------------------------------------------|
A|--------------------------------------------------------------------------|
E|--------------------------------------------------------------------------|

Guitar 2 (1:04 - 1:31)
e|----5-7----5-7----5-7---------------5-7----5-7----5-7---------------------|
B|----5-5----5-5----5-5---5-5-5-5\3---5-5----5-5----5-5---5-5-5/8-8\5-5-5---|
G|--------------------------------------------------------------------------|
D|--------------------------------------------------------------------------|
A|--------------------------------------------------------------------------|
E|--------------------------------------------------------------------------|

e|----5-7----5-7----5-7---------------5-7----5-7----5-7---------------------|
B|----5-5----5-5----5-5---5-5-5-5\3---5-5----5-5----5-5----5---5---5---5----|
G|---------------------------------------------------------7^9-7^9-7^9-7^9--|
D|--------------------------------------------------------------------------|
A|--------------------------------------------------------------------------|
E|--------------------------------------------------------------------------|

Then repeat guitar 1 (0:00 - 0:25) and (0:25 - 0:31) riff
Also repeat guitar 2 (0:13 - 0:39) riff 
Both until 1:56

Then repeat guitar 1 (0:39 - 1:31) riff and guitar 2 (1:04 - 1:31) riff
Both until 2:46

Guitar 1 (2:46 - 3:15)
e|-----------:---------------------------------------:----------------------|
B|--7--7-----:-5-5-5-5-5-5-5-5-5--7--7------7--7-----:----------------------|
G|--7--7--6--:--------------------7--7--6---7--7--6--:----------------------|
D|--7--7--7--:--------------------7--7--7---7--7--7--:--4-times-------------|
A|--5--5--7--:--------------------5--5--7---5--5--7--:----------------------|
E|--------5--:--------------------------5---------5--:----------------------|

Guitar 2 (2:46 - 3:15)
e|-:-------------------10-:-------------------------------------------------|
B|-:-5-5-5-5-5---10^12----:-------------------------------------------------|
G|-:----------------------:-2-times-then:--12-12p11-11--12-12p11-11---------|
D|-:----------------------:----------------12-12-12-12--12-12-12-12---------|
A|-:----------------------:-------------------------------------------------|
E|-:----------------------:-------------------------------------------------|

Guitar 1 (3:15 - 4:07)
e|--------------------------------------------------------------------------|
B|--------------------------------------------------------------------------|
G|--------------------------------------------------------------------------|
D|--9~----------------------------------------------------------------------|
A|--7~---5~-------------5--7~-----------------------------------------------|
E|--0~-------5~--3~/7~------------------------------------------------------|

Guitar 2 (3:15 - 4:07. From 3:43 also play part from (1:04 - 1:31) riff.
e|---------------3--7-------------------------------------------------------|
B|---------------3--7-------------------------------------------------------|
G|---------------4--8---7---------------------------------------------------|
D|---------------5--9---7---------------------------------------------------|
A|---------------5--9---5---------------------------------------------------|
E|---------------3--7--------------------------------------------------------

Now repeat guitar 1 (0:00 - 0:25)and(0:25 - 0:31) riff again
together with guitar 2 (0:13 - 0:39) riff with some sligth alterations:
lots of picked E's on the B-string

End:
e|--------------------------------------------------------------------------|
B|--------------------------------------------------------------------------|
G|--12-12-12-12-12-12-12-12--8--7\------------------------------------------|
D|--12-12-12-12-12-12-12-12--9--7\------------------------------------------|
A|--10-10-10-10-10-10-10-10--9--5\------------------------------------------|
E|---------------------------7----------------------------------------------

| /  slide up
| \  slide down
| h  hammer-on
| p  pull-off
| ~  vibrato
| +  harmonic
| x  Mute note
============================================================================
Related for Million Star Hotel tab