Song name
# A B C D E F G H I J K L M N O P Q R S T U V W X Y Z

The Constantines - Our Age tab

----------------------------------------------------------------------
			     Our Age - The Constantines
----------------------------------------------------------------------
Tabbed by:deHufter
Email:kurtkill@hotmail.com

Tuning:standard

Guitar 1 (0:00 - 0:39)
e|--------------------------------------------------------------------|
B|--------------------------------------------------------------------|
G|----0--0--0--0--0--0--0--0--0--0--0---------------------------------|
D|---0--0--0--0--0--0--0--0--0--0--0----------------------------------|
A|--2--2--3--5--5--5--7--3--5--2--2-----------------------------------|
E|---------------------------------------------------------------------

e|--------------------------------------------------------------------|
B|--------------------------------------------------------------------|
G|--------0--4------0--0------0--0-------0--0--0----------------------|
D|-------0--0------0--0------0--0-------0--0--0-----------------------|
A|--------------------------------------------------------------------|
E|--5\3-0--0--0-3/7--7--5\3-0--0---0-3-3--3--3------------------------|

Last time end like this:
e|-----------------------------------3~-------------------------------|
B|-----------------------------------3~-------------------------------|
G|--------0--0-------0--0--0--0------4~-------------------------------|
D|-------0--0-------0--0--0--0-------5~-------------------------------|
A|-----------------------------------5~-------------------------------|
E|--5\3-0--0---0-3-5--5--5--5---7\5--3~-------------------------------|

Guitar 1 Chorus (0:39 - 1:04)
e|------------------------------------3-3-----------------------------|
B|---7-7-7-7--5-5-------7-7-7-7--5-5--3-3-----------------------------|
G|---7-7-7-7--5-5-------7-7-7-7--5-5--4-4-----------------------------|
D|---7-7-7-7--5-5--2-2--7-7-7-7--5-5--5-5---2-times-------------------|
A|---5-5-5-5--3-3--2-2--5-5-5-5--3-3--5-5-----------------------------|
E|-----------------0-0----------------3-3-----------------------------|

During the chorus there's also some guitar 2 action going on, but
that's only the same chords higher on the neck to create a fatter sound.
I didn't figured this out cause it doesn't really add anything different
to the song. If you decide to play this song with a band or with the 2 of 
you, you should just screw around a bit with those higher pitched chords.

Guitar 1 (1:04 - 1:10)
e|--------------------------------------------------------------------|
B|--------------------------------------------------------------------|
G|----0--0--0--0--0--0------------------------------------------------|
D|---0--0--0--0--0--0---2-times---------------------------------------|
A|--------------------------------------------------------------------|
E|--0--0--0--2--2--3--------------------------------------------------|

Repeat the above riffs until 2:01, then play:

Guitar 1 (2:01 - 2:08)
e|-----------3-3-3-3--------------------------------------------------|
B|--5-5-5-5--3-3-3-3--------------------------------------------------|
G|--5-5-5-5--4-4-4-4--------------------------------------------------|
D|--5-5-5-5--5-5-5-5--------------------------------------------------|
A|--3-3-3-3--5-5-5-5--------------------------------------------------|
E|-----------3-3-3-3--------------------------------------------------|

Guitar 1 keeps on playing above chords during guitar 2 lick:

Guitar 2 (2:08 - 2:46)
e|----3----------------------------------------------------------------|
B|--5---5-3------------------------------------------------------------|
G|----------2-4-2p0----------------------------------------------------|
D|---------------------------------------------------------------------|
A|---------------------------------------------------------------------|
E|---------------------------------------------------------------------|

Every 4th time guitar 1 plays:
e|---------------------------------------------------------------------|
B|---------------------------------------------------------------------|
G|---------------------------------------------------------------------|
D|--2--2--4--5---------------------------------------------------------|
A|--2--2--4--5---------------------------------------------------------|
E|--0--0--2--3---------------------------------------------------------|

From 2:20 guitar 1 plays:
e|---------------------------------------------------------------------|
B|--12~~~~-------------------------------------------------------------|
G|--14^16~-------------------------------------------------------------|
D|---------------------------------------------------------------------|
A|---------------------------------------------------------------------|
E|---------------------------------------------------------------------|

Then repeat chorus till end

As mentioned earlier, i didnt figure out the entire guitar 2 part, cause
in this song it's only there to create a fatter sound. Of course i
tabbed the little guitar 2 lick at the end of the song.

| /  slide up
| \  slide down
| h  hammer-on
| p  pull-off
| ~  vibrato
| +  harmonic
| x  Mute note
========================================================================
Tap to rate this tab
# A B C D E F G H I J K L M N O P Q R S T U V W X Y Z