Song name
# A B C D E F G H I J K L M N O P Q R S T U V W X Y Z

The Constantines - Trans Canada tab

-------------------------------------------------------------------------
			     Trans Canada - The Constantines
-------------------------------------------------------------------------
Tabbed by:deHufter
Email:kurtkill@hotmail.com

Tuning:standard

Intro + verse:
e|-------------------------------------------------------------------------|
B|-------------------------------------------------------------------------|
G|-------------------------------------------------------------------------|
D|-------------------------------------------------------------------------|
A|--44444444444---77777----444444444444---77777----------------------------|
E|------------------------------------------------555555555555---444444----|

'Chorus':
e|-------------------------------------------------------------------------|
B|-------------------------------------------------------------------------|
G|--11------9h11---9------8----6h8--5--------------------------------------|
D|-----11------------9------9-------5--------------------------------------|
A|--------9------------7------------3--------------------------------------|
E|-------------------------------------------------------------------------|

Guitar 2 from 1:08 with big reverb
e|---4~-----4~-----7~-2~--4~-----------------------------------------------|
B|-------------------------------------------------------------------------|
G|-------------------------------------------------------------------------|
D|-------------------------------------------------------------------------|
A|-------------------------------------------------------------------------|
E|-------------------------------------------------------------------------|

End from 1:41 is very noisy but the chords played are:
e|---4--7--5--4------------------------------------------------------------|
B|---5--9--5--4------------------------------------------------------------|
G|---6--9--6--5------------------------------------------------------------|
D|---6--9--7--6------------------------------------------------------------|
A|---4--7--7--6------------------------------------------------------------|
E|---------5--4------------------------------------------------------------|
Tap to rate this tab
# A B C D E F G H I J K L M N O P Q R S T U V W X Y Z