The Constantines - Sub-domestic tab

----------------------------------------------------------------
		   Sub-Domestic - The Constantines
----------------------------------------------------------------
Tabbed by: deHufter
Email: kurtkill@hotmail.com

Tuning: standard

Intro guitar 1:
e|-:-----------------:----------------------------------------|
B|-:-----------------:----------------------------------------|
G|-:-----------------:----------------------------------------|
D|-:---------5--5----:--3-times-then:----------5--------------|
A|-:-3h5--5--------5-:-----------------3h5--5-----5\3---------|
E|-:-----------------:----------------------------------------|

At 0:21 Guitar 2 falls in playing exactly the same riff.
From 0:40 guitar 1 starts playing:

e|---3---1---3----1---3---------------------------------------|
B|---3---1---3----1---3---------------------------------------|
G|---4---2---4----2---4----3-times--then:---------------------|
D|---5---3---5----3---5---------------------------------------|
A|------------------------------------------------------------|
E|------------------------------------------------------------|


e|--3---1----3-------------3---1---3---1---3------------------|
B|--3---1----3--------3----3---1---3---1---3------------------|
G|--4---2----4---3b4-------4---2---4---2---4------------------|
D|--5---3----5-------------5---3---5---3---5------------------|
A|------------------------------------------------------------|
E|------------------------------------------------------------|

From 0:56 guitar 2:
e|-:---------------:------------------------------------------|
B|-:---------------:------------------------------------------|
G|-:---------------:------------------------------------------|
D|-:---------5-5---:--3-times-then: --5--5----------5------5--|
A|-:-5h7--7------7-:------------------7--5------------5----5--|
E|-:---------------:-------------------------0h3--3-----3--3--|

Guitar 1:
e|-:-5---6/7--7-----5--5/7-:----------------------------------|
B|-:-6---6/8--8-----6--6/8-:----------------------------------|
G|-:-5---5/7--7-----5--5/7-:--2-times-------------------------|
D|-:-----------------------:----------------------------------|
A|-:-----------------------:----------------------------------|
E|-:-----------------------:----------------------------------|

Then the song reapeats these riffs until 2:30:

Guitar 1:
e|------------------------------------------------------------|
B|------------------------------------------------------------|
G|------------------------------------------------------------|
D|------5--3/5--3/5-5-----------------------------------------|
A|------5--3/5--3/5-5--repeat--while-picking-G----------------|
E|-0h3--3--1/3--1/3-3-----------------------------------------|

Guitar 2 plays this little motif every 4 times or so, listen for
timing:
e|------------------------------------------------------------|
B|------------------------------------------------------------|
G|--3b4--5--5---7--7------------------------------------------|
D|--5----3--3---5--5------------------------------------------|
A|------------------------------------------------------------|
E|------------------------------------------------------------|

At the end play the 0:56 riff again and end on G.
Tap to rate this tab
 
# A B C D E F G H I J K L M N O P Q R S T U V W X Y Z