Guitaretab - guitar tabs
Song name
# A B C D E F G H I J K L M N O P Q R S T U V W X Y Z

The Constantines - On To You tab

-------------------------------------------------------------------------------
			     On to you  The Constantines
                              http://www.constantines.ca/
-------------------------------------------------------------------------------
Tabbed by: deHufter
Email:

Tuning: normal

Guitar 1 (0:00  0:28)
e|--------------------------------------------------------------------------|
B|--------------------------------------------------------------------------|
G|--------------------------------------------------------------------------|
D|---55555555-etc-----------------------------------------------------------|
A|--------------------------------------------------------------------------|
E|--------------------------------------------------------------------------|

Guitar 2 plays harmonics (0:00  0:28)
e|--------------------------------------------------------------------------|
B|------+7------------------------------------------------------------------|
G|----+7--+12---------------------------------------------------------------|
D|--+7----------------------------------------------------------------------|
A|--------------------------------------------------------------------------|
E|--------------------------------------------------------------------------|

Guitar 1 (0:28  0:55)
e|--------------------------------------------------------------------------|
B|-------------12-----------------------------------------------------------|
G|------12---------12--11---11----------------------------------------------|
D|-----------------------------------2-------------------------------------|
A|--10-----10----10------10-------10----------------------------------------|
E|--------------------------------------------------------------------------|
[ Tab from: http://www.guitaretab.com/t/the-constantines/91073.html ]
e|--------------------------------------------------------------------------|
B|------------12---------------------------12-------------------------------|
G|------12--------12--11--11---------12-----------12--11----11--------------|
D|--------------------------------------------------------------------------|
A|-------------------------------10-----10-----10--------10-----------------|
E|---8-----8-----8------8----8----------------------------------------------|

Guitar 1 (0:55  1:08)
e|---3----5-------3----5---------------------------------------------------|
B|---3----7--888--3----7--888----------------------------------------------|
G|---4----7--777--4----7--777----------------------------------------------|
D|---5----7-------5----7---------------------------------------------------|
A|---5----5-------5----5---------------------------------------------------|
E|---3------------3--------------------------------------------------------|

Repeat song from here till 2:06, then:

e|-------------------------------------------------------------------------|
B|-------------------------------------------------------------------------|
G|----------------------------(0)-(more after a while)---(0----------------|
D|-------------------------------------------------------------------------|
A|---7-7-7-7-7-7--3-3-3-3-3-3----------------------------------------------|
E|-------------------------------3-3-3-3-3-3-3-3-3-3-3-3-------------------|


Guitar 2 (3:14  4:20)
e|-------------------------------------------------------------------------|
B|-------------------------------------------------------------------------|
G|-------------------------------------------------------------------------|
D|---9p79p7-5-5---lots of times-with a few variations---------------------|
A|-------------------------------------------------------------------------|
E|-------------------------------------------------------------------------|

Guitar 1 (4:20)
e|-------------------------------------------------------------------------|
B|-------------------------------------------------------------------------|
G|-------------------------------------------------------------------------|
D|---5---------------------------------------------------------------------|
A|---5-(let-ring)----------------------------------------------------------|
E|---3---------------------------------------------------------------------|


| /  slide up
| \  slide down
| h  hammer-on
| p  pull-off
| ~  vibrato
| +  harmonic
| x  Mute note
===============================================================================
Related for On To You tab