Guitaretab - guitar tabs
Song name
# A B C D E F G H I J K L M N O P Q R S T U V W X Y Z

The Constantines - Soon Enough tab

-------------------------------------------------------------------------------
			     Soon enough  The Constantines
                             http://www.constantines.ca/
-------------------------------------------------------------------------------
Tabbed by: deHufter
Email: kurtkill@hotmail.com

Tuning: normal

e|-------------------------------------------------------------------------|
B|----------------------------------0-0---0-0------------------------------|
G|----0-0---0-0---0-0---0-0---0-0---0-0---0-0---0---0----------------------|
D|----2-2---2-2---2-2---2-2---0-0---0-0---0-0---0---0----------------------|
A|--------------------3----------------------------------------------------|
E|--0-----0-----0-----------3-----3-----3-----3---2------------------------|
[ Tab from: http://www.guitaretab.com/t/the-constantines/91095.html ]
e|-----7\5/7---3---3\5-5\8------------------------------------------------|
B|-------------3---3\5-5\8------------------------------------------------|
G|-------------0---0-0-0-0------------------------------------------------|
D|-------------0---0-------------------------------------------------------|
A|-----7\5/7---2---2\4-4\7------------------------------------------------|
E|----(0)------3---3\5-5\8------------------------------------------------|

e|-------------------------------------------------------------------------|
B|-------------------------------------------------------------------------|
G|-----0-0---0-0---0-0----0-0----------------------------------------------|
D|-----0-0---0-0---0-0----2-2----------------------------------------------|
A|----------------------3--------------------------------------------------|
E|---3-----3-----3---------------------------------------------------------|
Related for Soon Enough tab