Guitaretab - guitar tabs
Song name
# A B C D E F G H I J K L M N O P Q R S T U V W X Y Z

The Constantines - Nighttime Anytime tab

-------------------------------------------------------------------------------
			     Nighttime/Anytime – The Constantines
                                 http://www.constantines.ca/
-------------------------------------------------------------------------------
Tabbed by: deHufer
Email:

Tuning:normal

Guitar 1 (0:00 – 1:12)
e|-----------2-5---------------2-0-----------------------------------------|
B|--0---0--0-----0-0-0-0--0--0-----0-0--0----------------------------------|
G|--2/4-4-4-------4-4-4---4-4-------4-4\2----------------------------------|
D|-------------------------------------------------------------------------|
A|-------------------------------------------------------------------------|
E|-------------------------------------------------------------------------|

Guitar 2 (0:20 – 0:38)
e|-------------------------------------------------------------------------|
B|--12—lots of times-------------------------------------------------------|
G|-------------------------------------------------------------------------|
D|-------------------------------------------------------------------------|
A|-------------------------------------------------------------------------|
E|-------------------------------------------------------------------------|
  PM~~~~~~~~~~~~~~~~

Guitar 2 (0:38 – 1:11)
e|--------------------------------------------------------------------------|
B|---/7--7--10--------------------------------------------------------------|
G|---/7--7--7—-7\0----------------------------------------------------------|
D|---/9--9--9—-7\0--7-7-7--×4-----------------------------------------------|
A|---/9--9--9-------0-0-0---------------------------------------------------|
E|---/7--7------------------------------------------------------------------|

e|-------------------------------------------------------------------------|
B|---0-0-0-0-0-0-0-0-------------------------------------------------------|
G|--4-4-4-4-4-4-4-4--------------------------------------------------------|
D|-------------------------------------------------------------------------|
A|-------------------------------------------------------------------------|
E|-------------------------------------------------------------------------|

Guitar 2 (1:12 – 1:16)
e|-------------------------------------------------------------------------|
B|-------------------------------------------------------------------------|
G|--------12---------------------------------------------------------------|
D|---7/9--12---------------------------------------------------------------|
A|---7/7--10---------------------------------------------------------------|
E|---5/7-------------------------------------------------------------------|

Guitar 2 (1:17 – 1:45)
e|--------------------------------------------------------------------------|
B|--------------------------------------------------------------------------|
G|--4-4---4-4-4----7-7p6-6\4-4----------------------------------------------|
D|--4-4---4-4-4----7-7-7-7\5-5----------------------------------------------|
A|--2-2---2-2-2-------------------------------------------------------------|
E|--------------------------------------------------------------------------|

Guitar 1 (1:17 – 1:45)
e|--2-2------2-2-------------------------------------------------------------|
B|--3-3------3-3-------------------------------------------------------------|
G|--4-4------4-4------4/6-6\4------------------------------------------------|
D|--4-4-2h4--4-4-2h4--4/6-6\4------------------------------------------------|
A|--2-2------2-2------2/4-4\2------------------------------------------------|
E|---------------------------------------------------------------------------|
[ Tab from: http://www.guitaretab.com/t/the-constantines/91158.html ]
Guitar 1 (1:45 – 2:00)
e|--------2----------------------------------------------------------------|
B|--------3----------------------------------------------------------------|
G|--------4----------------------------------------------------------------|
D|--------4----------------------------------------------------------------|
A|--------2----------------------------------------------------------------|
E|-------------------------------------------------------------------------|

Guitar 2 (1:45 – 2:00)

e|--2-2---------------------------------------------------------------------|
B|--3-3---------------------------------------------------------------------|
G|--4-4--/7-----------------------------------------------------------------|
D|--5-5--/4-----------------------------------------------------------------|
A|--5-5---------------------------------------------------------------------|
E|--3-3---------------------------------------------------------------------|

Guitar 1 (2:00 – 2:30)
e|--------------------------------------------------------------------------|
B|--------------------------------------------------------------------------|
G|--------------------------------------------------------------------------|
D|--7/9--9-9----------------------------------------------------------------|
A|--7/9--9-9----------------------------------------------------------------|
E|--5/7--7-7----------------------------------------------------------------|

Guitar 2 (2:15 – 3:03)
e|--------------------------------------------------------------------------|
B|--------------------------------------------------------------------------|
G|--------------------------------------------------------------------------|
D|--7-7-7h9-9-9-9-9-------------7h9-9-9-9-9---------------------------------|
A|------------------9-7p0---0-0-------------9 7p0---------------------------|
E|--------------------------------------------------------------------------|
  PM~~~~~~~~~~~~~~~~~~~~~~~~~~~~~~~~~~~~~~~~~~~~~~

Guitar 1 (2:31 – 3:03)
e|--------------------------------------------------------------------------|
B|--0----------0----------0-------------------------------------------------|
G|------0----------0--------------------------------------------------------|
D|--9---9----9-9---9----9-9-------------------------------------------------|
A|--9---10---9-9---10---9-9-------------------------------------------------|
E|--------------------------------------------------------------------------|

From here guitar 1 repeats first riff, guitar 2 does some single note stuff sounding 
a lot of high F#’s.
From 3:22 guitar 2 plays main riff (0:38 - 1:11) again

Guitar 1 (3:40 – 4:11)
e|--------------------------------------------------------------------------|
B|--------------------------------------------------------------------------|
G|---444444444-lots of times------------------------------------------------|
D|--------------------------------------------------------------------------|
A|--------------------------------------------------------------------------|
E|--------------------------------------------------------------------------|

Guitar 2 (3:40 – 4:11)
e|--------------------------------------------------------------------------|
B|---0/8\7-7~-×3------8-7-3/5---------7-7-7-7-7-----------------------------|
G|----------------------------2h4/7—----------------------------------------|
D|--------------------------------------------------------------------------|
A|--------------------------------------------------------------------------|
E|--------------------------------------------------------------------------|

| /  slide up
| \  slide down
| h  hammer-on
| p  pull-off
| ~  vibrato
| +  harmonic
| x  Mute note
===============================================================================
Related for Nighttime Anytime tab