Guitaretab - guitar tabs
Song name
# A B C D E F G H I J K L M N O P Q R S T U V W X Y Z

The Constantines - Good Nurse tab

-------------------------------------------------------------------------------
			     Good nurse  The Constantines
-------------------------------------------------------------------------------
Tabbed by: deHufter
Email:

Tuning: normal

Guitar 1 (0:14  0:43)
e|-------------------------------------------------------------------------|
B|-------------------------------------------------------------------------|
G|-------------------------------------------------------------------------|
D|--4-------4--2--4--2---4--2----------------------------------------------|
A|--2-------2--0--2------2-------------------------------------------------|
E|--------------------------0----------------------------------------------|

Guitar 1 (0:43  1:12)
e|-------------------------------------------------------------------------|
B|-------------------------------------------------------------------------|
G|-------------------------------------------------------------------------|
D|--4---2---4---2---4---2---4---2------------------------------------------|
A|--2-------2---0---2-------2----------------------------------------------|
E|------------------------------0------------------------------------------|

Guitar 2 (1:12  1:41)
e|--5--3--2--2--5--0--2--2--5-----------------------------------------------|
B|--5--3--3--3--5--0--3--3--5-----------------------------------------------|
G|--6--4--4--4--6--0--4--4--6-----------------------------------------------|
D|--7--5--4--4--7--2-4--4--7-(listen to song for strumming pattern)--------|
A|--7--5--2--2--7--2--2--2--7-----------------------------------------------|
E|--5--3--------5--0--------5-----------------------------------------------|

Guitar 1 (1:12  1:41)
e|------7------------10-10--------------------10p7------------------5------|
B|--------10-7-7-----------10^1212r10------------7-10-7------------5------|
G|9^11----------9-7-------------------11/10/9--------------6h7------6-6h7--|
D|------------------------------------------------------7h9---9-9\7-7------|
A|------------------------------------------------------------------7------|
E|------------------------------------------------------------------5------|
[ Tab from: http://www.guitaretab.com/t/the-constantines/91307.html ]
Guitar 1 (1:41  2:10)
e|-------------------------------------------------------------------------|
B|-------------------------------------------------------------------------|
G|-------------------------------------------------------------------------|
D|--4---2---4---2---4----------4---2---------------------------------------|
A|--2-------2---0---2--break---2-------------------------------------------|
E|---------------------------------0---------------------------------------|

Guitar 2 plays then the same chords as 1:12  1:41

Guitar 1 (2:10  2:40)
e|-----7---------------------------10p7-----------------------7-10-7-------|
B|------10-7---7-------------10^12-----10p8-7-------------7h10-------------|
G|9^11-------9-------9-7-9^11--------------------79p7-6-------------------|
D|--------------97h9-9-----------------------7h9-9------9-----------------|
A|-------------------------------------------------------------------------|
E|-------------------------------------------------------------------------|


Guitar 1 (2:40  2:54)
e|--------------------------------10--------7-10-12-10-7-12-10-7-12-10-7---|
B|-----7h10--------10h12-----10^12------7h10-------------------------------|
G|---9------5---9-------5----------5------------------------------------|
D|-------------------------------------------------------------------------|
A|-------------------------------------------------------------------------|
E|-------------------------------------------------------------------------|

Guitar 1 (2:54 - end)
e|--7-7-7------------------------------------------------------------------|
B|---0-0-0-----------------------------------------------------------------|
G|-------------------------------------------------------------------------|
D|-------------------------------------------------------------------------|
A|-------------------------------------------------------------------------|
E|-------------------------------------------------------------------------|

Guitar 2 (2:54  end)
e|-5p0-7p0-many times very fast----------7-0-7-0-7-0----------------------|
B|-------------------------------------------------------------------------|
G|-------------------------------------------------------------------------|
D|-------------------------------------------------------------------------|
A|-------------------------------------------------------------------------|
E|-------------------------------------------------------------------------|

| /  slide up
| \  slide down
| h  hammer-on
| p  pull-off
| ~  vibrato
| +  harmonic
| x  Mute note
===============================================================================
Related for Good Nurse tab