Guitaretab - guitar tabs
Song name
# A B C D E F G H I J K L M N O P Q R S T U V W X Y Z

The Cops - Cop Pop tab

Song:Cop Pop
Band: The cops
Album: Drop it into their laps
Tabbed By:Phill Hanlon

Intro 0.00-0.05
e-------------------------------------------------------------------------------|
b-------------------------------------------------------------------------------|
g-------------------------------------------------------------------------------|
d-------------------------------------------------------------------------------|
a ----------------3-3-3-3-5-5-6-6-----------------------------------------------|
e-3-3-3-3-5-5-5-5---------------------------------------------------------------|

Verse 0.05-0.44
e-----------------------------------------------------------------------------|
b-----------------------------------------------------------------------------|
g-----------------------------------------------------------------------------|
d-----------------------------------------------------------------------------|
a-7---7-7-5-5-----10-9-7--7-7-5-5---------------------------------------------|
e-------------5-7-----------------5-7-7---------------------------------------|
[ Tab from: http://www.guitaretab.com/t/the-cops/109739.html ]
Chorus 0.45-1.04
e----------------------------------------------------------------------------------------|
b-6-6-6-6--4-4-4-4--6-6-6-6--4-4-4-4-----4-4-4--6-6-6------------------------------------|
g-7-7-7-7--5-5-5-5--7-7-7-7--5-5-5-5-----5-5-5--7-7-7------------------------------------|
d-7-7-7-7--5-5-5-5--7-7-7-7--5-5-5-5-----5-5-5--7-7-7------------------------------------|
a-5-5-5-5--3-3-3-3--5-5-5-5--3-3-3-3-----3-3-3--5-5-5------------------------------------|
e----------------------------------------------------------------------------------------|


Bridge 1.05-1.24
e----------------------------------------------------------------------------------------|
b----------------------------------------------------------------------------------------|
g----------------------------------------------------------------------------------------|
d-----------7-7-5-4----------------------------------------------------------------------|
a-9-9-7-5-----------5--7-7-5----------5-5-5-7-7-5----------------------------------------|
e---------7------------------7-5--5-5----------------------------------------------------|

Bridge 2 1.25-1.27
e----------------------------------------------------------------------------------------|
b----------------------------------------------------------------------------------------|
g----------------------------------------------------------------------------------------|
d----------------------------------------------------------------------------------------|
a-7-------5-----5-7----------------------------------------------------------------------|
e---5-6-7---6-7--------------------------------------------------------------------------|


verse same
chorus same


Bridge 3 2.07-2.17
a----------------------------------------------------------------------------------------|
e-1-1-1-1-1-1-1-1--3-3-3-3-3-3-3-3-------------------------------------------------------|

Bridge same

Song Structure:
Intro
Verse
Chorus
Bridge
Bridge 2
Verse 2
Chorus 2
Bridge 3
Bridge
Related for Cop Pop tab
Advertisement will be closed in 10 seconds