Song name
# A B C D E F G H I J K L M N O P Q R S T U V W X Y Z

The Cops - Hot Weapon tab

Song:hot Weapon
Artist:The Cops
Album:Drop it in their laps
Tabbed By:Phill Hanlon

Verse: Just bass, keyboards and drums.

Pre Chorus x2
e-----------------------------------------------------------------------------------|
b-6 --6-6--6-8-8--8-10-10--10-11-11--11---------------------------------------------|
g-7 --7-7--7-9-9--9-11-11--11-12-12--12---------------------------------------------|
d-7 --7-7--7-9-9--9-11-11--11-12-12--12---------------------------------------------|
a-5- -5-5--5-7-7--7-9  -9  --9   -10-10--10-----------------------------------------|
e-----------------------------------------------------------------------------------|

Chorus
e-----------------------------------------------------------------------------|
b-----------------------------------------------------------------------------|
g-----------------------------------------------------------------------------|
d-----------------------------------------------------------------------------|
a---------------------------------------2-3-3-3-3-----------------------------|
e-1-1-0-1-0-3-3-1--1-0-1-0-3-3--5-5-5-5---------------------------------------|

Thats pretty much the hole song, and it's not much or hard.

Song Structure:
Verse
Pre Chorus
Chorus
Verse 2
Chorus 2
Piano Bridge
Verse 3
pre Chorus
Chorus 3
Saxophone solo
Piano Bridge
End
Tap to rate this tab
# A B C D E F G H I J K L M N O P Q R S T U V W X Y Z