Song name
# A B C D E F G H I J K L M N O P Q R S T U V W X Y Z

The Cops - Call Me Anytime tab

Artist: The Cops
Song: Call Me Anytime
Released On: 80 In The Shade EP

Transcribed by Jay Tab


Transcribed: 18 November 2006

Notes: first tab ever My name is Jaxon Cooke haha yeah:P 

1ST VERSE:
    A#5              F5               G
E-|--------------------------------------------------------------------|-
B-|--------------------------------------------------------------------|-
G-|-3-3-3-3-3-3-3-3----------------------------------------------------|-
D-|-3-3-3-3-3-3-3-3--3-3-3-3-3-3-3-3--5-5-5-5-5-5-5-5-5-5-5-5-5-5-5-5--|- (slight palm mute)
A-|-1-1-1-1-1-1-1-1--3-3-3-3-3-3-3-3--5-5-5-5-5-5-5-5-5-5-5-5-5-5-5-5--|- (x 4)
E-|------------------1-1-1-1-1-1-1-1--3-3-3-3-3-3-3-3-3-3-3-3-3-3-3-3--|-

1ST PRE CHORUS:
    Gm           E#          D#       E#
E-|-----------------------------------------------|-
B-|----------11----------10--------8----------10--|-
G-|-------12----------10---------8---------10-----|-
D-|----12----------10----------8--------10--------|-
A-|-10-----------8-----------6--------8-----------|-(x 2)
E-|-----------------------------------------------|-

2ND VERSE:
    A#5              F5               G
E-|--------------------------------------------------------------------|-
B-|--------------------------------------------------------------------|-
G-|-3-3-3-3-3-3-3-3----------------------------------------------------|-
D-|-3-3-3-3-3-3-3-3--3-3-3-3-3-3-3-3--5-5-5-5-5-5-5-5-5-5-5-5-5-5-5-5--|- (slight palm mute)
A-|-1-1-1-1-1-1-1-1--3-3-3-3-3-3-3-3--5-5-5-5-5-5-5-5-5-5-5-5-5-5-5-5--|- (x 4)
E-|------------------1-1-1-1-1-1-1-1--3-3-3-3-3-3-3-3-3-3-3-3-3-3-3-3--|-

2ND PRE CHORUS:
    Gm           E#          D#       E#
E-|-----------------------------------------------|-
B-|----------11----------10--------8----------10--|-
G-|-------12----------10---------8---------10-----|-
D-|----12----------10----------8--------10--------|-
A-|-10-----------8-----------6--------8-----------|-(x 2)
E-|-----------------------------------------------|-

CHORUS
    D5      D#5  A#         D#5     E#5    G#5
E-|-----------------------|-----------------------------|-
B-|-----------------------|-----------------------------|-
G-|-7--7-7--8-8--7--7-7-7-|-8--8-8--10-10--12--12-12-12-|-
D-|-7--7-7--8-8--8--8-8-8-|-8--8-8--10-10--12--12-12-12-|-
A-|-5--5-5--6-6--8--8-8-8-|-6--6-6--8--8---10--10-10-10-|-(x 4)
E-|--------------6--6-6-6-|-----------------------------|-

3RD VERSE:
    A#5              F5               G
E-|--------------------------------------------------------------------|-
B-|--------------------------------------------------------------------|-
G-|-3-3-3-3-3-3-3-3----------------------------------------------------|-
D-|-3-3-3-3-3-3-3-3--3-3-3-3-3-3-3-3--5-5-5-5-5-5-5-5-5-5-5-5-5-5-5-5--|- (slight palm mute)
A-|-1-1-1-1-1-1-1-1--3-3-3-3-3-3-3-3--5-5-5-5-5-5-5-5-5-5-5-5-5-5-5-5--|- (x 4)
E-|------------------1-1-1-1-1-1-1-1--3-3-3-3-3-3-3-3-3-3-3-3-3-3-3-3--|-

3RD PRE CHORUS:
    Gm           E#          D#       E#
E-|-----------------------------------------------|-
B-|----------11----------10--------8----------10--|-
G-|-------12----------10---------8---------10-----|-
D-|----12----------10----------8--------10--------|-
A-|-10-----------8-----------6--------8-----------|-(x 2)
E-|-----------------------------------------------|-

CHORUS
    D5      D#5  A#         D#5     E#5    G#5
E-|-----------------------|-----------------------------|-
B-|-----------------------|-----------------------------|-
G-|-7--7-7--8-8--7--7-7-7-|-8--8-8--10-10--12--12-12-12-|-
D-|-7--7-7--8-8--8--8-8-8-|-8--8-8--10-10--12--12-12-12-|-
A-|-5--5-5--6-6--8--8-8-8-|-6--6-6--8--8---10--10-10-10-|-(x 4)
E-|--------------6--6-6-6-|-----------------------------|-

BRIDGE
    G   A#      F   G#
E-|------------------------|-
B-|------------------------|-
G-|------------------------|-
D-|-5-5/8-8-8---3-3/6-6-6--|-
A-|-5-5/8-8-8---3-3/6-6-6--|- (x 4)
E-|-3-3/6-6-6---1-1/4-4-4--|-

KEY CHANGE:
    E5      E#5   C5             E#5        G5     A5
E-|----------------------------|--------------------------------|-
B-|----------------------------|--------------------------------|-
G-|-9--9-9--10-10--------------|-10--10-10--12-12--14--14-14-14-|-
D-|-9--9-9--10-10-10--10-10-10-|-10--10-10--12-12--14--14-14-14-|-
A-|-7--7-7--8--8--10--10-10-10-|-8---8--8---10-10--12--12-12-12-|-
E-|---------------8---8--8--8--|--------------------------------|-

    E5      E#5   C5             A#5     F
E-|----------------------------|------------|-
B-|----------------------------|------------|-
G-|-9--9-9--10-10--------------|------------|-
D-|-9--9-9--10-10-10--10-10-10-|-8--8-8--3--|-
A-|-7--7-7--8--8--10--10-10-10-|-8--8-8--3--|-
E-|---------------8---8--8--8--|-6--6-6--1--|-

4TH PRE CHORUS:
    Gm           E#          D#       E#
E-|-----------------------------------------------|-
B-|----------11----------10--------8----------10--|-
G-|-------12----------10---------8---------10-----|-
D-|----12----------10----------8--------10--------|-
A-|-10-----------8-----------6--------8-----------|-(x 2)
E-|-----------------------------------------------|-

LAST CHORUS
    D5      D#5  A#         D#5     E#5    G#5
E-|-----------------------|-----------------------------|-
B-|-----------------------|-----------------------------|-
G-|-7--7-7--8-8--7--7-7-7-|-8--8-8--10-10--12--12-12-12-|-
D-|-7--7-7--8-8--8--8-8-8-|-8--8-8--10-10--12--12-12-12-|-
A-|-5--5-5--6-6--8--8-8-8-|-6--6-6--8--8---10--10-10-10-|-(x 3)
E-|--------------6--6-6-6-|-----------------------------|-

    D5      D#5  A#         D#5     E#5 
E-|-----------------------|----------------|-
B-|-----------------------|----------------|-
G-|-7--7-7--8-8--7--7-7-7-|-8--8-8--10-10--|-
D-|-7--7-7--8-8--8--8-8-8-|-8--8-8--10-10--|-
A-|-5--5-5--6-6--8--8-8-8-|-6--6-6--8--8---|-
E-|--------------6--6-6-6-|----------------|-
Tap to rate this tab
# A B C D E F G H I J K L M N O P Q R S T U V W X Y Z