Song name
# A B C D E F G H I J K L M N O P Q R S T U V W X Y Z

The Copyrights - They Say tab

Intro/Outro
e------------------------------------|   
B------------------------------------|     
G--------88-66--88-66----88-66-------|    
D--9--99--------------99-------99----|   
A------------------------------------|    
E------------------------------------|
      
                3x
e-----------|----------|-----------------|   
B-----------|---7------|----7------------|     
G--5/4------|-8--8-6-8-|--8--8-6-8-4-----|    
D--5/2------|----------|-----------------|   
A--3/2------|----------|-----------------|    
E-----------|----------|-----------------|

 
Verse
  2x
e-------|-----------------------------|   
B-------|-----------------------------|     
G--4----|-----------------------------|    
D--4--4-|--2--4-----------------------|   
A--2--4-|--2--4-----------------------|    
E-----2-|--0--2-----------------------|

Solo
e----------------------------------------------------|   
B--------------------7-5-7-5-7-5-7-5------7-9-7-7/4--|     
G----6--6-8--8-9-8-9-----------------6-8-6-----------|    
D--9--9----------------------------------------------|   
A----------------------------------------------------|    
E----------------------------------------------------|
Tap to rate this tab
# A B C D E F G H I J K L M N O P Q R S T U V W X Y Z