Song name
# A B C D E F G H I J K L M N O P Q R S T U V W X Y Z

The Copyrights - Weapons Of Math Destruction tab

Intro
e---------------------|   
B---------------------|     
G-8--9--8/7-----------|    
D-x--x--x/x-----------|  
A-6--7--6/5-----------|    
E---------------------|

Verse

e----------------------------------|   
B----------------------------------|     
G-8-----6-----8--9-----------------|    
D-8--8--6--6--x--x--6--8-----------|  
A-6--8--4--6--6--7--6--8-----------|    
E----6-----4--------4--6-----------|

Chorus
e----------------------|   
B----------------------|     
G-8-----10-------------|    
D-8--8--10--6----------|  
A-6--8---8--6----------|    
E----6------4----------|


Outro
e------------------|   |-----------|
B------------------|   |-----------|  
G-8-----6----------|   |--8--9--8--| 
D-8--8--6--6-------|4x |--x--x--x--|1x
A-6--8--4--6-------|   |--6--7--6--| 
E----6-----4-------|   |-----------|
Tap to rate this tab
 
# A B C D E F G H I J K L M N O P Q R S T U V W X Y Z