Song name
# A B C D E F G H I J K L M N O P Q R S T U V W X Y Z

The Copyrights - Not For Shaving tab

Intro/Chorus
e-------------|----------------------|
B-------------|----------------------|
G--5----------|----------------------|
D--5--3--5--3-|---5------------------|
A--3--3--5--3-|---5------------------|
E-----1--3--1-|---3------------------|

Verse
e-----------------------------------|
B-----------------------------------|
G---5-------------------------------|
D---5--5----------------------------|
A---3--5----------------------------|
E------3----------------------------|

Bridge
          Lead Guitar
e-----------------------------------|
B-----------------------------------|
G------7h9p7------------------------|
D--10---------10101010--------------|
A-----------------------------------|
E-----------------------------------|

             Rhythm
e-----------------------------------|
B-----------------------------------|
G-----------------------------------|
D--7--5--3--------------------------|
A--7--5--3--------------------------|
E--5--3--1--------------------------|

Outro

e----------------------------------------|
B----------------------------------------|
G--------5-------------------------------|
D--3--5--5-------------------------------|
A--3--5--3-------------------------------|
E--1--3----------------------------------|
Tap to rate this tab
 
# A B C D E F G H I J K L M N O P Q R S T U V W X Y Z