Song name
# A B C D E F G H I J K L M N O P Q R S T U V W X Y Z

The Copyrights - Lets Waste Time Together tab

Intro

e-----------------------------------|   
B-----------------------------------|     
G--7--------------------------------|    
D--7--------------------------------|  
A--5--------------------------------|    
E-----------------------------------|

Verse

Lead Guitar
e-----------------------------------|   
B-----------------------------------|     
G--9--6--7----9--11--7--9-----------|    
D--x--x--x----x--x---x--x-----------|  
A--7--4--5----7--9---5--7-----------|    
E-----------------------------------|

Rhythm 

e-----------------------------------|   
B-----------------------------------|     
G-----------------------------------|    
D--2--5--2--5--7--------------------|  
A--2--5--2--5--7--------------------|    
E--0--3--0--3--5--------------------|

Chorus

e-----------------------|------------|   
B-----------------------|------------|     
G--7-----5--------------|------------|    
D--7--7--5--5--7--------|---5--------|  
A--5--7--3--5--7--------|---5--------|    
E-----5-----3--5--------|---3--------|

Outro

e-----------------------------------|   
B-----------------------------------|     
G--7-----5-----4--------------------|    
D--7--7--5--5--4--2--5--7-----------|  
A--5--7--3--5--2--2--5--7-----------|    
E-----5-----3-----0--3--5-----------|

Tap to rate this tab
 
# A B C D E F G H I J K L M N O P Q R S T U V W X Y Z