Song name
# A B C D E F G H I J K L M N O P Q R S T U V W X Y Z

The Copyrights - Kingsfield tab

Verse
      3x                1x
e----------------|-------------------|
B----------------|-------------------|
G--5--7-----9--7-|--5--7-------------|
D--5--7--3--x--x-|--5--7--3----------|
A--3--5--3--7--5-|--3--5--3----------|
E--------1-------|--------1----------|

Bridge
e--------------------------------------|
B--------------------------------------|
G--------------------------------------|
D--5-----------------------------------|
A--5-----------------------------------|
E--3-----------------------------------|

Chorus
e-----------------------------------|
B-----------------------------------|
G--5-----5-----5--------5-----------|
D--5--3--5--3--5--3--5--5-----------|
A--3--3--3--3--3--3--5--3-----------|
E-----1-----1-----1--3--------------|

Outro
     3x              1x
e-------------|----------------------|
B-------------|----------------------|
G--------5----|--5--------5----------|
D--7--5--5--3-|--5--5--3--5----------|
A--7--5--3--3-|--3--5--3--3----------|
E--5--3-----1-|-----3--1-------------|
Tap to rate this tab
 
# A B C D E F G H I J K L M N O P Q R S T U V W X Y Z