Song name
# A B C D E F G H I J K L M N O P Q R S T U V W X Y Z

The Copyrights - Face For Radio tab

Intro
e---------------------------------------------------------------------------|
B----5-6-5-------5---5---5-6-5-------5---------5-6-5-------5---5-8-8888-----|
G--5-------5-5-7---7---5-------5-5-7---7--5--5-------5-5-7---7----------7-5-|
D---------------------------------------------------------------------------|
A---------------------------------------------------------------------------|
E---------------------------------------------------------------------------|

e-----------------------------------|
B-----------------------------------|
G---5-----5-----5--------5----------|
D---5--5--5--5--5--5--3--5----------|
A---3--5--3--5--3--5--3--3----------|
E------3-----3-----3--1-------------|

Verse
e-----------------------------------|
B-----------------------------------|
G---5-----5--------5-----5----------|
D---5--5--5--5--3--5--3--5----------|
A---3--5--3--5--3--3--3--1----------|
E------3-----3--1-----1-------------|

Bridge
e-----------------------------------|
B-----------------------------------|
G---8-----5-----5--8----------------|
D---8--3--5--5--5--8--3--5----------|
A---6--3--3--5--3--6--3--5----------|
E------1-----3--------1--3----------|

Chorus
e-------------------------------------------|
B-------------------------------------------|
G---5-----5-----5--------5-----5-----5------|
D---5--5--5--5--5--5--3--5--3--5--3--5--5---|
A---3--5--3--5--3--5--3--3--3--3--3--3--5---|
E------3-----3-----3--1-----1-----1-----3---|
Tap to rate this tab
# A B C D E F G H I J K L M N O P Q R S T U V W X Y Z