Song name
# A B C D E F G H I J K L M N O P Q R S T U V W X Y Z

The Coronas - Gracedont Wait tab

-------------------------------------------------------------------------------
			     Grace,Don't Wait - The Coronas
-------------------------------------------------------------------------------
Tabbed by:Rob Mc Gowan
Email:randomlyrob@hotmail.com

Tuning:Eadgbe

Capo:2nd Fret(All Chords relevant to capo)

Chords used:(not sure on a few of the names so i made them up)

    Em  C   c3  E2  Bm  G   A5
e|------------------2---1---5----|
B|------1---3-------3-------5----|
G|--------------2---4-------6----|
D|--2---2---4---1---4-------7----|
A|--2---3---5---2---2---2---7----|
E|----------------------3---5----|


Intro:
Guitar 1
e|----------------------------------|
B|------1---3------------1----------|
G|--------------2------------2------|
D|--2---2---4---1--(x3)--2---1------|
A|--2---3---5---2--------3---2------|
E|----------------------------------|

Verse:
e|----------------------|
B|------1---3-----------|
G|--------------2-------|
D|--2---2---4---1--(x3)-|
A|--2---3---5---2-------|
E|----------------------|

Pre Chorus:
e|--------------|
B|---1----------|
G|-------2------|
D|---2---1------|
A|---3---2------|
E|--------------|

Chorus
e|------2---1---5-------|
B|------3-------5-------|
G|------4-------6-------|
D|--2---4-------7--(x4)-|
A|--2---2---2---7-------|
E|----------3---5-------|

Repeat Intro:
e|----------------------|
B|------1---3-----------|
G|--------------2-------|
D|--2---2---4---1--(x2)-|
A|--2---3---5---2-------|
E|----------------------|

Verse:
e|----------------------|
B|------1---3-----------|
G|--------------2-------|
D|--2---2---4---1--(x3)-|
A|--2---3---5---2-------|
E|----------------------|

Pre Chorus:
e|--------------|
B|---1----------|
G|-------2------|
D|---2---1------|
A|---3---2------|
E|--------------|
Chorus
e|------2---1---5-------|
B|------3-------5-------|
G|------4-------6-------|
D|--2---4-------7--(x4)-|
A|--2---2---2---7-------|
E|----------3---5-------|

Repeat Intro:
e|----------------------|
B|------1---3-----------|
G|--------------2-------|
D|--2---2---4---1--(x2)-|
A|--2---3---5---2-------|
E|----------------------|

Bridge:
e|--------------|
B|---1----------|
G|-------2------|
D|---2---1-(x2)-|
A|---3---2------|
E|--------------|

Chorus
e|------2---1---5-------|
B|------3-------5-------|
G|------4-------6-------|
D|--2---4-------7--(x4)-|
A|--2---2---2---7-------|
E|----------3---5-------|

Ending:
e|--------------|
B|---1----------|
G|-------2------|
D|---2---1------|
A|---3---2------|
E|--------------|
Tap to rate this tab
# A B C D E F G H I J K L M N O P Q R S T U V W X Y Z