Guitaretab - guitar tabs
Song name
# A B C D E F G H I J K L M N O P Q R S T U V W X Y Z

The Coronas - Hereos Or Ghosts tab

I found this song very hard to play using standard tuning because its hard to 
play along to the song to get the strumming correct but these chords make is quite easy.

Tuning: DADGAe
Capo fret 2

Verse


"So here we go heroes or ghosts one man's mood can break another man's soul"


e-0--------------0----------0--------------0--------------0------------0
A-0--------------0----------0--------------0--------------0------------0
G-2--------------7----------6--------------2--------------1------------6 x4
D-0--------------0----------7--------------4--------------2------------7
A-0--------------9----------7--------------4--------------2------------7
D-0--------------9----------7--------------4--------------2------------7

Chorus

"And it's beginning to happen, it's beginning to move
e----------------------0-------------------------0
A----------------------0-------------------------0
G----------------------7-------------------------1
D----------------------0-------------------------2
A----------------------9-------------------------2
D----------------------9-------------------------2
[ Tab from: http://www.guitaretab.com/t/the-coronas/185064.html ]
"I've seen a reaction, yeah I've watched us improve"
e--------------0----------------------------0
A--------------0----------------------------0
G--------------2----------------------------1 x2
D--------------4----------------------------2
A--------------4----------------------------2
D--------------4----------------------------2

So here we go - heroes or ghosts - one man's mood can break another man's soul
Or am I just too cynical for my own good, too scared to say, we'll get there if we should

And you know, yeah you know, it's harder than it looks, yeah it's harder than it looks
But I know, it's gonna take a lot of time and a little bit of luck

And it's beginning to happen, it's beginning to move
I've seen a reaction, yeah I've watched us improve
And you could say we don't care or that we don't believe
But this is what we've got and there's nowhere we'd rather be.

And you know these roads, they could take us to the start
From the shadows you're cast to play the part
So don't grow old, forgetting who you are
A simple goal could get you very far

And you know, yeah you know, it's harder than it looks, yeah it's harder than it looks
But I know, it's gonna take a lot of time and a little bit of luck

And it's beginning to happen, it's beginning to move
I've seen a reaction, yeah I've watched us improve
And you could say we don't care or that we don't believe
But this is what we've got and there's nowhere we'd rather be.

And it's beginning to happen, it's beginning to move
I've seen a reaction, now we've so much to prove
And you could say we don't care or that we don't believe
But this is what we've got and there's nowhere we'd rather



Related for Hereos Or Ghosts tab