Song name
# A B C D E F G H I J K L M N O P Q R S T U V W X Y Z

The Coronas - The Talk tab

 The Talk By The Coronas





Chords:
    *E*   Emaj7    C#      Bmajor  E/C#minor   E/A      Emaj7/B
e-- 0       0       0       0         0         0          0
B-- 0       0       0       0         0         0          0
G-- 9       8       6       4         9         9          8
D-- 9       9       6       4         9         9          9
A-- 7       7       4       2         *         0          *
E-- 0       0       0       0         9         *          7

Verse and Intro:

*E* / Emaj7 / C#  /BMajor

Chorus:(Not sure about the chords but it has the same on the site)
E/A - - - E* - Emaj7/B - x3
E/A - - - - - - -




Tabbed by:Gareth Quinn Redmond
Email:garethqr@Hotmail.com

Tuning:EADGBE

Riff 1 (Played : Intro , verse in backround

e|--------------11-----------12-----------11-------------------|
B|-------12------------12----------12-----------12-------------| Play 16 
G|--9----------------------------------------------------------| Times
D|-------------------------------------------------------------|
A|-------------------------------------------------------------|
E|-------------------------------------------------------------|

Riff 2 

e|------7----7-------------------------------------------------|                           
A|-----------7-------------------------------------------------|
G|-------------------------9----8----9-------------------------|
D|-------------------------------------------------------------|
A|-------------------------------------------------------------|
E|-------------------------------------------------------------|




| /  slide up
| \  slide down
| h  hammer-on
| p  pull-off
| ~  vibrato
| +  harmonic
| x  Mute note
===============================================================


Tap to rate this tab
# A B C D E F G H I J K L M N O P Q R S T U V W X Y Z