Song name
# A B C D E F G H I J K L M N O P Q R S T U V W X Y Z

The Coronas - San Diego Song tab

Capo fret 5

	Chords

     	Am        Fmaj7         C           G
    e---0           0           0           3-|
    B---1           1           1           3-|
    G---2           0           0           0-|
    D---2           3           2           0-|
    A---0           3           3           2-|
    E---x           1           0           3-|

Chorus:
Am / Fmaj7 / C / G /
Am / Fmaj7 / C /...
Riff:
Am / Fmaj7 / C / G /
Am / Famj7 / C / G /
Verse:
Am / Fmaj7 / C / G /
Am / Famj7 / C / G / Fmaj7 / / /

Riff:
e ----------------------------------------------------------|
B ----------------------------------------------------------|
G ------------------10--------------------------10-9-10-12--|
D --10-12-10-12-12 ----12-12-10-12--------10-12-------------|
A ---------------------------------sl 12--------------------|
E ----------------------------------------------------------|

e ----------------------------------------------------------|
B ------------------10--------------------------------------|
G --10----10-----------12-12-10-----------------------------|
D -----12----12-12--------------12-------10-12--5-7---------|
A ---------------------------------sl 12--------------------|
E ----------------------------------------------------------|

e ----------------------------------------------------------|
B ----------------------------------------------------------|
G ----------------------------------------------------------|
D --3-2-----2-3-2-------------------------------------------|
A ------3-5-------3-5---------------------------------------|
E ----------------------------------------------------------|

Solo:
e ----------------------------------------------------------|
B ----------------------------------------------------------|
G --------------------9-10-9-10-12-10-14-14-14-12-10-12-10--|
D -10-h12-12-12-sl 12---------------------------------------|
A ----------------------------------------------------------|
E ----------------------------------------------------------|

           Bb               Dm                    F
e ---------------------------------------------------------|
B ----------6---------------6--------------------1---------|
G --------7---7-----------7---7----------------2---2-------|
D ------8-------8-------7-------7-----------3-------3------|
A ----8-----------8---5-----------5-------3-----------3----|
E --6---------------------------------------------------1--|

    C
e ---------------10-----------10--10--13--10---------------|
B --1---1---1----11-----11--------------------11--10-------|
G --0---0---0----10--10----10------------------------------|
D ---------------------------------------------------------|
A ---------------------------------------------------------|
E ---------------------------------------------------------|

e ---------------------------------------------------------|
B ---------------------------------------------------------|
G --12--12--12--10----10-----12--10------------------------|
D -----------------12---------------12---------------------|
A ---------------------------------------------------------|
E ---------------------------------------------------------|

e ---------------------------------------------------------|
B ---------------------------------------------------------|
G ---------------------------------------------------------|
D -----------------3--2--3--5--7--10-----------------------|
A -----------3--5------------------------------------------|
E --1-3 sl 5-----------------------------------------------|


Fmaj7 / Am / C / G /
x3
Fmaj7 / / /
Riff
Am / / /
Chorus
Tap to rate this tab
 
# A B C D E F G H I J K L M N O P Q R S T U V W X Y Z