Guitaretab - guitar tabs
Song name
# A B C D E F G H I J K L M N O P Q R S T U V W X Y Z

The Coronas - San Diego Song tab

Capo fret 5

Am / Fmaj7 / C / G /
Am / Fmaj7 / C /...
Riff:
Am / Fmaj7 / C / G /
Am / Famj7 / C / G /
Verse:
Am / Fmaj7 / C / G /
Am / Famj7 / C / G / Fmaj7 / / /
Chorus, Riff, Verse, Chorus

Solo:
[ Tab from: http://www.guitaretab.com/t/the-coronas/98302.html ]
e-------------------------------------------------------------------------------------|
B-------------------------------------------------------------------------------------|
G---------------------10------------------------------------10-----9-10-12------------|
D--10-12--10-12-12----10---12-12-10-12-12------------10-12----------------------------|
A------------------------------------------10-sl-12-----------------------------------|
E-------------------------------------------------------------------------------------|

e-------------------------------------------------------------------------------------|
B--------------------10---------------------------------------------------------------|
G--10-----10------------12-10---------------------------------------------------------|
D-----12------12-12-----------12------------10-12-----7-9--3---2-----2-3-5--2---------|
A---------------------------------10-sl-12------------------------5------------3-5----|
E-------------------------------------------------------------------------------------|
Fmaj7 / Am / C / G /
x3
Fmaj7 / / /
Riff
Am / / /
Chorus
Related for San Diego Song tab