Guitaretab - guitar tabs
Song name
# A B C D E F G H I J K L M N O P Q R S T U V W X Y Z

The Coronas - Grace Dont Wait tab

by craig
coronas grace dont wait fiddly in bits!
(s) means slide up to the next note
12(b14) means bend on the 12th fret to get the note in braquets

first one (0:12)

E----------------------------------------------------------------------------|
B-----------10-------10------10--------10(s)-12-12-12-12-12-12-12-12---------|
G--9-9-11------9-11-----9-11----9-11-----------------------------------------|
D----------------------------------------------------------------------------|
A----------------------------------------------------------------------------|
E----------------------------------------------------------------------------|

E-------------------------------------------------------------------------|
B--14-14-14--12-12--10--12--10-10-----------------------------------------|
G---------------------------------------11--11-11-11-11-11-11-11----------|
D-------------------------------------------------------------------------|
A-------------------------------------------------------------------------|
E-------------------------------------------------------------------------|

E------------------------------------|
B-------------------9-9-9-9----------|
G--10-10--11-11-----------11---------|
D------------------------------------|
A------------------------------------|
E------------------------------------|

second one (1:12)

E----------------------------------------------------------------------------|
B-----------10--------10--------10--------10(s)-12-12-12-12-12-12-12-12------|
G--9-9-11------9-11------9-11------9-11--------------------------------------|
D----------------------------------------------------------------------------|
A----------------------------------------------------------------------------|
E----------------------------------------------------------------------------|

E-------------------------------------------------------------|
B--14-14-14--12-12--10--12--10--------------------------------|
G-------------------------------------------------------------|
D-------------------------------------------------------------|
A-------------------------------------------------------------|
E-------------------------------------------------------------|

E---------------------------------------------------------------------------|
B-----------10-------10--------10---------10(s)-12-12-12-12-12-12-12-12-----|
G--9-9-11------9-11-----9-11------9-11--------------------------------------|
D---------------------------------------------------------------------------|
A---------------------------------------------------------------------------|
E---------------------------------------------------------------------------|
[ Tab from: http://www.guitaretab.com/t/the-coronas/98601.html ]
E----------------------------------------|
B--12-10-12(b14)-10----10----------------|
G------------------------11----11--------|
D----------------------------------------|
A----------------------------------------|
E----------------------------------------|

third one (2:12)


E----------------------------------------------------------------------------|
B-----------10--------10---------10---------10(s)-12-12-12-12-12-12-12-12----|
G--9-9-11------9-11------9-11-------9-11-------------------------------------|
D----------------------------------------------------------------------------|
A----------------------------------------------------------------------------|
E----------------------------------------------------------------------------|

E-------------------------------------------------------------|
B--14-14-14--12-12--10--12--10--------------------------------|
G-------------------------------------------------------------|
D-------------------------------------------------------------|
A-------------------------------------------------------------|
E-------------------------------------------------------------|

E-------------------------------------------------------------------------|
B-----------10--------10--------10---------10(s)-12-12-12-12-12-12-12-12--|
G--9-9-11------9-11------9-11------9-11-----------------------------------|
D-------------------------------------------------------------------------|
A-------------------------------------------------------------------------|
E-------------------------------------------------------------------------|

E--10-9-14-13---- 14-------|
B---------------- 15-------|
G---------------- 14-------|
D--------------------------|
A--------------------------|
E--------------------------|

fourth one (3:02)

E------------9-------9-9-9-9-9-9-9-9--9-------------------------------------|
B--------10---10---------------------------12-12-12-12-12-12-12-12----------|
G--9-11---------11----------------------------------------------------------|
D---------------------------------------------------------------------------|
A---------------------------------------------------------------------------|
E---------------------------------------------------------------------------|


E--9-9-----------------------|
B------12-12-10-12-10--------|
G----------------------------|
D----------------------------|
A----------------------------|
E----------------------------|

E------------9--------9-9-9-9-9-9-9-9--9----------------------------|
B--------10---10---------------------------12-12-12-12-12-12-12-12--|
G--9-11---------11--------------------------------------------------|
D-------------------------------------------------------------------|
A-------------------------------------------------------------------|
E-------------------------------------------------------------------|

E-------------------------------|
B-------------------------------|
G--12(b14)-12-------------------|
D---------------11---9-11-------|
A-------------------------------|
E-------------------------------|
Related for Grace Dont Wait tab