Song name
# A B C D E F G H I J K L M N O P Q R S T U V W X Y Z

The Corrs - Dream tab

Intro:
E|----------------------|---------------------|------------------|----------------|
B|---------1------------|---------------------|----------1-------|----------------|
G|-------2----2-----2---|--------4------------|--------2---2---2-|----5-4---5-4---|
D|-----3----------------|------5-------5---5--|------3-----------|--------5-----5-|
A|---3-----------3------|----5-----------5----|----3---------3---|----------------|
E|--1-------------------|--3------------------|--1---------------|--3-------------|
 
Verse:1
E|----------------------|---------------------|------------------|----------------|
B|---------1------------|---------------------|----------1-------|----------------|
G|-------2----2-----2---|--------4------------|--------2---2---2-|----5-4---5-4---| X6
D|-----3----------------|------5-------5---5--|------3-----------|--------5-----5-|
A|---3-----------3------|----5-----------5----|----3---------3---|----------------|
E|--1-------------------|--3------------------|--1---------------|--3-------------|

Chorus:
       
       FM7= 1 bar   G = 1 bar X8


Intruments: 4 Bars


Verse:1
E|----------------------|---------------------|------------------|----------------|
B|---------1------------|---------------------|----------1-------|----------------|
G|-------2----2-----2---|--------4------------|--------2---2---2-|----5-4---5-4---| X6
D|-----3----------------|------5-------5---5--|------3-----------|--------5-----5-|
A|---3-----------3------|----5-----------5----|----3---------3---|----------------|
E|--1-------------------|--3------------------|--1---------------|--3-------------|



Chorus:
       
       FM7= 1 bar   G = 1 bar X8


Intruments: 7 Bars


Chorus:
       
       FM7= 1 bar   G = 1 bar X8 
Tap to rate this tab
# A B C D E F G H I J K L M N O P Q R S T U V W X Y Z