Song name
# A B C D E F G H I J K L M N O P Q R S T U V W X Y Z

The Corrs - Breathless tab

INTRO:

E|--------------------------------------------------------------|
B|---7---5-4----7---5-4---7---5-4----7---5-4--------------------|
G|--------------------------------------------------------------|
D|--------------------------------------------------------------|
A|--------------------------------------------------------------|
E|--------------------------------------------------------------|

DISTORTION
E|--------------------------------------------------------------|
B|---7---5-4-------5--4-----------4-----------------------------|
G|-----------6-----------6--4--------6---3--4-------------------|
D|--------------------------------------------------------------|
A|--------------------------------------------------------------|
E|--------------------------------------------------------------|


vERSE:
B              F#
The daylight's fading slowly
C#m           G#m    F#       B
But time with you is standing still
           F#
I'm waiting for you only
C#m           G#m       F#     E
The slightest touch and I feel weak

   F#     G#m
 I cannot lie
      E     F#     B
 From you I cannot hide
         E      F#      G#m
 And I'm losing will to try
       E              F#
 Can't hide it, can't fight it

CHORUS:

   E         A
So go on, go on
        B      c#m   B
Come on leave me breathless
E               A
Tempt me, tease me
       B      c#m   B
Until I can't deny this
E         A
Loving feeling
        B      c#m   B
Make me long for your kiss
E         A       B
Go on, go on, yeah (come on)


[Intro (Part B)]

B              F#
And if there's no tomorrow
C#m        G#m     F#       B
And all we have is here and now
          F#
I'm happy just to have you
C#m            G#m    F#       E
You're all the love I need somehow

     F#     G#m
It's like a dream
E            F#    B
Although I'm not asleep
      E     F#      G#m
And I never want to wake up
      E              F#
Don't lose it, don't leave it


CHORUS:

   E         A
So go on, go on
        B      c#m   B
Come on leave me breathless
E               A
Tempt me, tease me
       B      c#m   B
Until I can't deny this
E         A
Loving feeling
        B      c#m   B
Make me long for your kiss
E         A       B
Go on, go on, yeah (come on)


[Intro (Part A  but play Part A only once) and then solo]

E |-----------------------------------------------|
B |---9///12~~~\--12p11-----12p11----------/12~~--|
G |---------------------11--------11-//13~~-------|
D |-----------------------------------------------|
A |-----------------------------------------------|
e |-----------------------------------------------|




E |------11-12-11~~-//14~-12-11------12-11--------|
B |---11------------------------------------12-12-|
G |-----------------------------------------------|
D |-----------------------------------------------|
A |-----------------------------------------------|
e |-----------------------------------------------|



E |---11--------------------------------------|
B |-------12---14--11--10---------------------|
G |-------------------------------------------|
D |-------------------------------------------|
A |-------------------------------------------|
e |-------------------------------------------|

Bridge:

E F#      G#m
  I can't lie
     E     F#     B
From you I cannot hide
         E       F#      G#m
And I've lost my will to try
      E              F#
Can't hide it, can't fight it


   E         A
So go on, go on
       B    C#m     B
Come on leave me breathless
E               A
Tempt me, tease me
        B    C#m     B
Until I can't deny this
E         A
Loving feeling
        B    C#m     B
Make me long for your kiss
E         A
Go on, go on
       B    C#m     B
Come on leave me breathless
E         A
Go on, go on
       B    C#m     B
Come on leave me breathless
E         A
Go on, go on
       B    C#m     B
Come on leave me breathless
E      E E E
Go on, go on
Tap to rate this tab
# A B C D E F G H I J K L M N O P Q R S T U V W X Y Z