Song name
# A B C D E F G H I J K L M N O P Q R S T U V W X Y Z

The Coup - We Are The Ones tab

Standard Tuning
For anyone wanting to insert fills.

Intro x1
|--------------|---------------|--------------|---------------|
|--------------|---------------|--------------|---------------|
|--------------|---------------|--------------|---------------|
|--------------|---------------|--------------|-------3-------|
|-------------5|--------------0|-------------5|--------------5|
|--3-3-6-5-3---|--1------2---3-|--3-3-6-5-3---|---1-------2-3-|


1st Chorus x4
|--------------|---------------|--------------|---------------|
|--------------|---------------|--------------|---------------|
|--------------|---------------|--------------|---------------|
|--------------|---------------|--------------|-------3-------|
|-------------5|--------------0|-------------5|--------------5|
|--3-3-6-5-3---|--1------2---3-|--3-3-6-5-3---|---1-------2-3-|

Fill at the end of First Chorus
|----------------|
|----------------|
|----------3p2p0-|
|------3-5-------|
|--3-5-----------|
|----------------|

1st Verse (Same as Chorus)x4
|--------------|---------------|--------------|---------------|
|--------------|---------------|--------------|---------------|
|--------------|---------------|--------------|---------------|
|--------------|---------------|--------------|-----3---------|
|-------------5|--------------0|-------------5|--------------5|
|--3-3-6-5-3---|--1----2--3----|--3-3-6-5-3---|---1----2--3---|

2nd Chorus(Only x2 this time)

Fill at the end of Second Chorus
|----------------|
|----------------|
|----------3h5p3-|
|------3-5-------|
|--3-5-----------|
|----------------|

2nd Verse x5

3rd Chorus x2

Fill
|------------------|
|------------------|
|----------3-2-0---|
|--------3-------3-|
|--3-4-5-----------|
|------------------|

"Get yer work up" Bridgex2
|--------------|---------------|--------------|---------------|
|--------------|---------------|--------------|---------------|
|--------------|---------------|--------------|---------------|
|--------------|---------------|--------------|-----3---------|
|-------------5|--------------0|-------------5|--------------5|
|--3-3-6-5-3---|--1----2--3----|--3-3-6-5-3---|---1----2--3---|

3rd Verse x4

4th Chorus x4

Bass Fill in the middle of Last Chorus
|--------------------------|
|--------------------------|
|--------------------------|
|--5-3---------------------|
|------5-4-3-----5-4-3-----|
|------------6---------6-3-|

"Get yer Work Up" Outro
|--------------|---------------|--------------|---------------|
|--------------|---------------|--------------|---------------|
|--------------|---------------|--------------|---------------|
|--------------|---------------|--------------|-----3---------|
|-------------5|--------------0|-------------5|--------------5|
|--3-3-6-5-3---|--1----2--3----|--3-3-6-5-3---|---1----2--3---|
Tap to rate this tab
# A B C D E F G H I J K L M N O P Q R S T U V W X Y Z