Song name
# A B C D E F G H I J K L M N O P Q R S T U V W X Y Z

The Coup - Your Parents Cocaine tab

The whole thing is two parts

e---------------|---------------|---------------|------------|
B---------------|---------------|---------------|------------|
G-------9-101212|1212-10-9------|-------9-101212|12-10-9-----|
D-10-10-9-101212|1212-10-9-1010-|-10-10-9-101212|12-10-9-----|
A-10-10-7-8-1010|1010-8--7-1010-|-10-10-7-8-1010|10-8--7-10--|
E-8--8----------|----------8-8--|-8--8----------|--------8---|


e------------|------------|------------|------------|
B------------|------------|------------|------------|
G----9-----9-|-9-10-9-10--|-1012-1012--|12-10-9-----|
D-10-9--10-9-|-9-10-9-10--|-1012-1012--|12-10-9-10--|
A-10-7--10-7-|-7-8--7-8---|-8-10-8-10--|10-8--7-10--|
E-8-----8----|------------|------------|--------8---|
Tap to rate this tab
 
# A B C D E F G H I J K L M N O P Q R S T U V W X Y Z