Guitaretab - guitar tabs
Song name
# A B C D E F G H I J K L M N O P Q R S T U V W X Y Z

The Courteeners - No You Didnt No You Dont tab

PLEASE RATE AND COMMENT

CHORDS USED
A = 5 7 7 6 5 5
F#m = 2 4 4 2 2 2
C#m = 4 4 6 6 5 4
E7 = 7 7 9 7 9 7
D = 5 5 7 7 7 5
F#m7 = 9 9 11 9 10 9

Its a very simple but nice song to play.
The strumming pattern doesn't fit with the lyrics so that
can be the tricky part. I've tried my best to fit in
with the lyrics at the bottom. If you play along with the
track its easy to work out. I play it like this:

e--5-x-5-5-5--2-x-2-2-2--4-x-4-4-4--7-x-7-7-7----------|
B--5-x-5-5-5--2-x-2-2-2--5-x-5-5-5--9-x-9-9-9----------|
G--6-x-6-6-6--2-x-2-2-2--6-x-6-6-6--7-x-7-7-7   PART 1-|
D--7-x-7-7-7--4-x-4-4-4--6-x-6-6-6--9-x-9-9-9----------|
A--7-x-7-7-7--4-x-4-4-4--4-x-4-4-4--7-x-7-7-7----------|
E--5-x-5-5-5--2-x-2-2-2--4-x-4-4-4--7-x-7-7-7----------|


e--7-7-7-7-7-7-7-7-7-7-7-7-7-7-7-7-7-7-7---------------|
B--9-9-9-9-9-9-9-9-9-9-9-9-9-9-9-9-9-9-9---------------|
G--7-7-7-7-7-7-7-7-7-7-7-7-7-7-7-7-7-7-7        PART 2-|
D--9-9-9-9-9-9-9-9-9-9-9-9-9-9-9-9-9-9-9---------------|
A--7-7-7-7-7-7-7-7-7-7-7-7-7-7-7-7-7-7-7---------------|
E--7-7-7-7-7-7-7-7-7-7-7-7-7-7-7-7-7-7-7---------------|


e--5--5--2--2--4--4--7-7-7-7--------------|
B--5--5--2--2--5--5--9-9-9-9--------------|
G--6--6--2--2--6--6--7-7-7-7       PART 3-|
D--7--7--4--4--6--6--9-9-9-9--------------|
A--7--7--4--4--4--4--7-7-7-7--------------|
E--5--5--2--2--4--4--7-7-7-7--------------|

[ Tab from: http://www.guitaretab.com/t/the-courteeners/106815.html ]
e--5~~--9~~--5~~--7~~
B--7~~-10~~--7~~--9~~
G--7~~--9~~--7~~--7~~          PART 4 (not 100% about this part)
D--7~~-11~~--7~~--9~~
A--5~~--9~~--5~~--7~~
E--5~~--9~~--5~~--7~~

x = mute the note
~~ = let the chrod ring out

LYRICS
(PART 1)
So just because I use salty phrases and I go through stages
Where I neglect endeavor does it mean I'm not clever?
No I don't think so
Just because my newspaper pages
Haven't been the times in ages
Does this meen that I don't no as much as you?
Jelousy will destroy us or so she used to say
You'd kill for half the things we do including yesterday
(PART 2)
(PART 1)
But I suppose you know because you went to school with me
You sit in ya garage and you'd see
All the things we do don't you! No you didn't and no you don't
No you didn't and no you don't. No you don't!
(PART 3)
(PART 1)
Do you remeber us lot doing keys
In the back of the garage at 243?
That was us and no one else
Lend luke a jumper off the shelf
Do you remeber us lot doing keys
In the back of the garage where no one sees
That was us, no one else another jager off the shelf
(PART 2)
(PART 1)
So I suppose you know because your went to school with me
Sit in ya garage and you'd see
All the things we do don't you! no you didn't and no you don't
No you didn't and no you don't. no you don't!
(PART 3)
(PART 4)
Always be people looking down their noses
I don't care I'm comin up smelling of roses
(PART 1)
But I suppose you know because your went to school with me
Sit in ya garage and you'd see
All the things we do don't you! no you didn't and no you don't
No you didn't and no you don't. no you don't! no ya don't
(END ON THE A CHORD)
Related for No You Didnt No You Dont tab
No You Didnt No You Dont chords by The Courteeners