Song name
# A B C D E F G H I J K L M N O P Q R S T U V W X Y Z

The Courteeners - Not Nineteen Forever tab

-------------------------------------------------------------------------------
			     Not Nineteen Forever - The Courteeners
-------------------------------------------------------------------------------
Tabbed by:slurms
Email:euan-tk@hotmail.com

Tuning:EADGBE


Intro: Lead Guitar
e|--------------------------------------------------------------|--|
B|--------------------------------------------------------------|--|
G|-6-6-6-6-6-6-6-6--7-7-7-7-7-7-7-7--10-10-10-9~--10-10-10-9~---|--|
D|-x-x-x-x-x-x-x-x--x-x-x-x-x-x-x-x--x--x--x--x---x--x--x--x----|x2|
A|-4-4-4-4-4-4-4-4--5-5-5-5-5-5-5-5--9--9--9--7~--9--9--9--7~---|--|
E|--------------------------------------------------------------|--|
Rhythm Guitar
e|-5-5-5-5-5-5-5-5-5-5-5-5-5-5-5-5-5-5-5-5-5-5-5-5-5-5-5-5-5----|--|
B|-7-7-7-7-7-7-7-7-7-7-7-7-7-7-7-7-7-7-7-7-7-7-7-7-7-7-7-7-7----|--|
G|-7-7-7-7-7-7-7-7-7-7-7-7-7-7-7-7-7-7-7-7-7-7-7-7-7-7-7-7-7----|--|
D|--------------------------------------------------------------|x2|
A|--------------------------------------------------------------|--|
E|--------------------------------------------------------------|--|


Verses: Lead Guitar
e|--------------------------------------------------------------|--|
B|--------------------------------------------------------------|--|
G|-6-6-6-6-6-6-6-6--7-7-7-7-7-7-7-7--10-10-10-9~--10-10-10-9~---|--|
D|-x-x-x-x-x-x-x-x--x-x-x-x-x-x-x-x--x--x--x--x---x--x--x--x----|x2|
A|-4-4-4-4-4-4-4-4--5-5-5-5-5-5-5-5--9--9--9--7~--9--9--9--7~---|--|
E|--------------------------------------------------------------|--|
Rhythm Guitar
e|-5-5-5-5-5-5-5-5-5-5-5-5-5-5-5-5-5-5-5-5-5-5-5-5-5-5-5-5-5----|--|
B|-7-7-7-7-7-7-7-7-7-7-7-7-7-7-7-7-7-7-7-7-7-7-7-7-7-7-7-7-7----|--|
G|-7-7-7-7-7-7-7-7-7-7-7-7-7-7-7-7-7-7-7-7-7-7-7-7-7-7-7-7-7----|--|
D|--------------------------------------------------------------|x2|
A|--------------------------------------------------------------|--|
E|--------------------------------------------------------------|--|



Choruses: Lead Guitar
e|--------------------------------------------------------------|--|
B|--------------------------------------------------------------|--|
G|-6-6-6-6-6-6-6-6--7-7-7-7-7-7-7-7--10-10-10-9~--10-10-10-9~---|--|
D|-x-x-x-x-x-x-x-x--x-x-x-x-x-x-x-x--x--x--x--x---x--x--x--x----|x2|
A|-4-4-4-4-4-4-4-4--5-5-5-5-5-5-5-5--9--9--9--7~--9--9--9--7~---|--|
E|--------------------------------------------------------------|--|
Rhythm Guitar
e|-5-5-5-5-5-5-5-5-5-5-5-5-5-5-5-5-5-5-5-5-5-5-5-5-5-5-5-5-5----|--|
B|-7-7-7-7-7-7-7-7-7-7-7-7-7-7-7-7-7-7-7-7-7-7-7-7-7-7-7-7-7----|--|
G|-7-7-7-7-7-7-7-7-7-7-7-7-7-7-7-7-7-7-7-7-7-7-7-7-7-7-7-7-7----|--|
D|--------------------------------------------------------------|x2|
A|--------------------------------------------------------------|--|
E|--------------------------------------------------------------|--|




Interlude: Lead Guitar
e|--9-9-9--7-7-7-7-7--9-9-9--7-7-7-7-7---9-9-9--7-7-7-7-7---910-9-7-9--|--|
B|-101010-1010101010-101010-1010101010--101010-1010101010--1010101010--|--|
G|---------------------------------------------------------------------|--|
D|---------------------------------------------------------------------|x2|
A|---------------------------------------------------------------------|--|
E|---------------------------------------------------------------------|--|
Rhythm Guitar
e|---------------------------------------------------------------------|--|
B|---------------------------------------------------------------------|--|
G|-7-7-7-7-7-7-7-7-7-7-7-7-7-7-7-7-7-7-7-7-7-7-7-7-7-7-7-7-7-7-7-7-7-7-|--|
D|-7-7-7-7-7-7-7-7-7-7-7-7-7-7-7-7-7-7-7-7-7-7-7-7-7-7-7-7-7-7-7-7-7-7-|x2|
A|-5-5-5-5-5-5-5-5-5-5-5-5-5-5-5-5-5-5-5-5-5-5-5-5-5-5-5-5-5-5-5-5-5-5-|--|
E|---------------------------------------------------------------------|--|




| /  slide up
| \  slide down
| h  hammer-on
| p  pull-off
| ~  let ring
| +  harmonic
| x  Mute note
===============================================================================
Tap to rate this tab
 
# A B C D E F G H I J K L M N O P Q R S T U V W X Y Z