Song name
# A B C D E F G H I J K L M N O P Q R S T U V W X Y Z

The Courteeners - That Kiss tab

The Courteeners - That Kiss

Tabbed by Josh Rankin

Main Riff

e|----5---5---5---5---5---5---5---5---5---5---5---5-----7---9--7---7-|
B|------5-------5-------5-------5-------7-------7---------9------9---|
G|--6-------6-------6-------6-------7-------7-------7/9--------------|
D|-------------------------------------------------------------------|
A|-------------------------------------------------------------------|
E|-------------------------------------------------------------------|

Little riff after chorus

e|-----------------------------|
B|-----------------------------|
G|--9---7---6-----9---7---6-7--| (x however many times)
D|------------7----------------|
A|-----------------------------|
E|-----------------------------|

Chords: Verse&Chorus - A D E
        Bridge       - C# E D E



Rate please! Comments welcome. cheers to Tusseto for the chords!!!!!!!!!!! 

xx 



Tap to rate this tab
 
# A B C D E F G H I J K L M N O P Q R S T U V W X Y Z