Song name
# A B C D E F G H I J K L M N O P Q R S T U V W X Y Z

The Courteeners - Kimberley tab

Kimberley (Fray)


Chords

Am      Am/C

e---    ----|
B--1    --1-|
G--2    --2-|
D--2    --2-|
A--3    --3-|
E---    --

Intro
 e---------------------------------------------------------------------------|
 B---------------------------------------------------------------------------|
 G-14-14-14-14-14-14-14-14-14-14-14-14-14-14-14-14-14-14-14-14-14-14-14-14---|
 D---------------------------------------------------------------------------|
 A---------------------------------------------------------------------------|
 E---------------------------------------------------------------------------|

e----5-5-5-5-5-5-5--5-    ---------------------------------------------------|
B----5-5-5-5-5-5-5--5     ---------------------------------------------------|
G----5-5-5-5-5-5-5--7     --9999^--------------------------------------------|
D----7-7-7-7-5-7-7--7  X3 --7777^--------------------------------------------|
A-------------------      ---------------------------------------------------|
E--------------------     ---------------------------------------------------|


e----x-x-x-x-x-x-x- x     -------------|
B----x-x-x-x-x-x-x--x     -------------|
G----5-5-5-5-5-5-5--7     ---9999------|
D----7-7-7-7-5-7-7--7  X3 ---7777------|
A----0-0-0-0-0-0-0--0     -------------|
E--------------------     -------------|


Intro & Verse 1
e-5-5-5-5-5-5-5-5|-5-5-5-5-5-5-5-5|5-5-5-5-5-5-5-5|5-5-5-5-x-x---------|
B-5-5-5-5-5-5-5-5|-5-5-5-5-5-5-5-5|5-5-5-5-5-5-5-5|5-5-5-5-x-x-x-------|
G-5-5-5-5-5-5-5-5|-5-5-5-5-5-5-5-5|5-5-5-5-5-5-5-5|5-5-5-5-12-12-12-12-|
D-7-7-7-7-5-7-7-7|-7-7-7-7-7-7-7-5|7-7-7-7-5-7-7-7|7-7-7-7-12-12-12-12-|
A-0-0-0-0-0-0-0-0|-0-0-0-0-0-0-0-5|0-0-0-0-0-0-0-0|0-0-0-0-x--x--x--x--|
Verse 1


Who is that Girl, I think it's Kokaine Kim
and I've not seen her face in ages tell me where she's been
Oh Kokanie called Kimerberly dancing by the door
have you seen her slightly slender self
sleeping on the floor?

e----------------------------------------------------------------------------|
B----------------------------------------------------------------------------|
G----------------------------------------------------------------------------|
D----------------------------------------------------------------------------|
A----------------------------------------------------------------------------|
E-3s12-12-12--9-9-9----3--5--3--5----3s12-12-12--9-9-9----3-5-5-5-3--5-------|

E3s12-12-12--9-9-9----3--5--3--5--

e--------------------------------------------------|
B--------------------------------------------------|
G--------------------------------------------------|
D--------------------------------------------------|
A--------------------------------------------------|
E-3s12-12-12--9-9-9----3-5-5-5-3-5-5-5-3-5-5-5-3-5-|


Alternatively replace the final bit of this riff with (Guitar 2 on recording):

e---5-5-5-3-5-5-5-3-5-5-5-3-5----17s0-|
B---5-5-5-3-5-5-5-3-5-5-5-3-5---------|
G-------------------------------------|
D-------------------------------------|
A-------------------------------------|
E-------------------------------------|


e----5-5-5-5-5-5-5--5-    ---------|
B----5-5-5-5-5-5-5--5     ---------|
G----5-5-5-5-5-5-5--7     --9999^--|
D----7-7-7-7-5-7-7--7  X3 --7777^--|
A-------------------      ---------|
E--------------------     ---------|

e-5-5-5-5-5-5-5-5|-5-5-5-5-5-5-5-5|5-5-5-5-5-5-5-5|5-5-5-5-x-x---------|
B-5-5-5-5-5-5-5-5|-5-5-5-5-5-5-5-5|5-5-5-5-5-5-5-5|5-5-5-5-x-x-x-------|
G-5-5-5-5-5-5-5-5|-5-5-5-5-5-5-5-5|5-5-5-5-5-5-5-5|5-5-5-5-12-12-12----|
D-7-7-7-7-5-7-7-7|-7-7-7-7-7-7-7-5|7-7-7-7-5-7-7-7|7-7-7-7-12-12-12----|
A-0-0-0-0-0-0-0-0|-0-0-0-0-0-0-0-5|0-0-0-0-0-0-0-0|0-0-0-0-x--x--x--x--|

Alternatively replace with this riff (Guitar 2 on recording):

e-----8-5---------8-5-----------8-5-----------------|
B---------8-5---------8-5----------8-5--------------|
G-------------7-5---------7-5---------7-5-----9999--|
D-----------------7-----------7-----------7---7777--|
A---------------------------------------------------|
E---------------------------------------------------|


Verse

Am
There's Kokaine Kim

e-----------|
B-----------|
G-----------|
D-----------|
A---0-3-2-0-|
E-----------|


Am
That girls off the rails

e----------------|
B----------------|
G----------------|
D----------------|
A----------------|
E-0-3-4-5--------|

Am                         Am   Am/C
Sparkling teeth and nyon nights and champagne fairytales

(Use chords from verse 1)
Oh girl from Timperley who is that guy you're with


well I hope he treats you real nice in the two days you've got left to live


e----------------------------------------------------------------------------|
B----------------------------------------------------------------------------|
G----------------------------------------------------------------------------|
D----------------------------------------------------------------------------|
A----------------------------------------------------------------------------|
E-3s12-12-12--9-9-9----3--5--3--5----3s12-12-12--9-9-9----3--5-5-5-3-5-5-5---|

E-5----3s12-12-12--9-9-9----3--5--3--5--

e----------------------------------------------------|
B----------------------------------------------------|
G----------------------------------------------------|
D----------------------------------------------------|
A----------------------------------------------------|
E-3s12-12-12--9-9-9----3-5-5-5-3-5-5-5-5-3-5-5-5-3-5-|


Alternatively replace the final bit of this riff with (Guitar 2 on recording):

e---5-5-5-3-5-5-5-3-5-5-5-3-5----17s0-|
B---5-5-5-3-5-5-5-3-5-5-5-3-5---------|
G-------------------------------------|
D-------------------------------------|
A-------------------------------------|
E-------------------------------------|

Outro

e----5-5-5-5-5-5-5--5---|
B----5-5-5-5-5-5-5--5---|
G----5-5-5-5-5-5-5--7---|
D----7-7-7-7-5-7-7--7---|  X3
A-----------------------|
E-----------------------|

-------------------|
-------------------|
-------9-7---------|
-----------5-7-----|
-------------------|
-------------------|
Tap to rate this tab
# A B C D E F G H I J K L M N O P Q R S T U V W X Y Z