Song name
# A B C D E F G H I J K L M N O P Q R S T U V W X Y Z

The Courteeners - Why Do You Do It tab

Fray - unreleased / early solo, played couple of times with Courteeners

Chords

C, Fmaj7, G*, Am, G, F,


Intro & Verses:

  C       Fmaj7            C         Fmaj7            C
-----0---------0------------------0--------0--------------------|
--1---1-----1---1---------- 1111---1----1---1------------1111---|
-------0----2----2------------------0---2----2------------------|
--2-----2---3-----3-------- 2222-----2--3-----3--3 s 5---2222---| x2
--3------------------3-2--- 3333-------------------------3333---|
--------------------3---3---------------------------------------|

  C       Fmaj7            C        Fmaj7            C
-----0---------0------------------0--------0-----------------------|
--1---1-----1---1---------- 1111---1----1---1---------------1111---|
-------0----2----2------------------0---2----2---------------------|
--2-----2---3-----3-------- 2222-----2--3-----3--3 s 5------2222---| x2
--3------------------3-2--- 3333----------------------------3333---|
--------------------3---3------------------------------------------|

Why do you do it,                   Why do you do it, do it to me


Am               G             F                    C
The butterfly lights are on, and they're getting dimmer
Am                  G             F                    C
A silent kiss and a ??? frame is pale and your getting thinner
Am                     G                    F                      C
I'm sick and tired of all of them people saying you shouldn't have come
F                                  G
Instead we arrived on the 123 and now we're done


-5--3--1--0---------------|
-------------1------------|
--------------------------|
-------------2------------|
-------------3------------|
--------------------------|


Intro, Chorus


Verse 2

All of your friends.......got dark rings around your eyes
and I suppose you think that's fashionable, but that's no surprise

*can't make out next two lines sorry but that's the song*

Outro:

Intro and Chorus
Tap to rate this tab
 
# A B C D E F G H I J K L M N O P Q R S T U V W X Y Z