Song name
# A B C D E F G H I J K L M N O P Q R S T U V W X Y Z

The Courteeners - An Ex Is An Ex For A Reason tab

The Courteeners - An Ex Is An Ex For A Reason

Tabbed by: Adam Atkinson
Email: adamatkinson@hotmail.com

Tuning: Standard (Capo on 2) All Chord Relate To Capo

Intro

e|-----------------------------------------------------------------------|
B|-----------------------------------------------------------------------|
G|---9999-----999---9999-----999---22222222----44444444------------------|
D|---9999-x3--777---9999-x3--777---22222222----44444444------------------|
A|---7777-----999---7777-----999---------------22222222------------------|
E|-----------------------------------------------------------------------|

e|---------------------------------------------------------------------------|
B|---------------------------------------------------------------------------|
G|---9999-------9~-----------------------------------------------------------|
D|---9999-x3----9~-----------------------------------------------------------|
A|---7777-------7~-----------------------------------------------------------|
E|---------------------------------------------------------------------------|

Verse

e|--------------------------------------------------------------------------|
B|--------------------------------------------------------------------------|
G|--9999------999---9999------22222222--44444444---9999----999--9999--9~----|
D|--9999-x3---777---9999-x4---22222222--44444444---9999-x3-777--9999--9~----|
A --7777------999---7777----------------22222222---7777----999--7777--7~----|
E|--------------------------------------------------------------------------|

Inbetween Verse 2 & 3 there's a kinda Solo bit I think this is just Liam plucking each 
using the same notes as the verse apart from the 979 bit inbetween

Awesome Song! Awesome Band!
Tap to rate this tab
# A B C D E F G H I J K L M N O P Q R S T U V W X Y Z