Song name
# A B C D E F G H I J K L M N O P Q R S T U V W X Y Z

The Courteeners - The Opener chords

Highlighted       Show chord diagrams
Chords:

C, F, F#, G, C/B

CAPO: 5th Fret.


Intro:

C, F, G

 C                               F                 F#
-3-3-3-3-3-3-3-3-XXXX-          -1-1-1-1-1-1-1-1-XX-2----|
-5-5-5-5-5-5-5-5-XXXX-          -1-1-1-1-1-1-1-1-XX-2----|
-5-5-5-5-5-5-5-5-XXXX-  X2      -2-2-2-2-2-2-2-1-XX-3----|
-5-5-5-5-5-5-5-5-XXXX-          -3-3-3-3-3-3-3-3-XX-4----|
-3-3-3-3-3-3-3-3-XXXX-          -3-3-3-3-3-3-3-3-XX-4----|
-3-3-3-3-3-3-3-3-XXXX-          -1-1-1-1-1-1-1-1-XX-2----|

 G
-3-3-3-3-3-3-3-3-|
-3-3-3-3-3-3-3-4-|
-4-4-4-4-4-4-4-4-|
-5-5-5-5-4-5-5-5-|
-5-5-5-5-5-5-5-5-|
-3-3-3-3-3-3-3-3-|

C                                                    F
I've been away i've been working but now that i'm i need to know that youre
                          G
still there and I need to know you still care
                 C
well of course you do, of course you do
                 F                             G
cos i you were made for me and I was made or  you

C                               F                 F#
-3-3-3-3-3-3-3-3-XXXX-          -1-1-1-1-1-1-1-1-XX-2----|
-5-5-5-5-5-5-5-5-XXXX-          -1-1-1-1-1-1-1-1-XX-2----|
-5-5-5-5-5-5-5-5-XXXX-  X2      -2-2-2-2-2-2-2-1-XX-3----|
-5-5-5-5-5-5-5-5-XXXX-          -3-3-3-3-3-3-3-3-XX-4----|
-3-3-3-3-3-3-3-3-XXXX-          -3-3-3-3-3-3-3-3-XX-4----|
-3-3-3-3-3-3-3-3-XXXX-          -1-1-1-1-1-1-1-1-XX-2----|

 G
-3-3-3-3-3-3-3-3-|
-3-3-3-3-3-3-3-4-|
-4-4-4-4-4-4-4-4-|
-5-5-5-5-4-5-5-5-|
-5-5-5-5-5-5-5-5-|
-3-3-3-3-3-3-3-3-|

Some things change but the majority they stand still and I need to know that you want to 
I need to know you still will
well of course you do, of course you do
but i was made for this place and I was made for you

C                               F                 F#
-3-3-3-3-3-3-3-3-XXXX-          -1-1-1-1-1-1-1-1-XX-2----|
-5-5-5-5-5-5-5-5-XXXX-          -1-1-1-1-1-1-1-1-XX-2----|
-5-5-5-5-5-5-5-5-XXXX-  X2      -2-2-2-2-2-2-2-1-XX-3----|
-5-5-5-5-5-5-5-5-XXXX-          -3-3-3-3-3-3-3-3-XX-4----|
-3-3-3-3-3-3-3-3-XXXX-          -3-3-3-3-3-3-3-3-XX-4----|
-3-3-3-3-3-3-3-3-XXXX-          -1-1-1-1-1-1-1-1-XX-2----|

 G
-3-3-3-3-3-3-3-3-|
-3-3-3-3-3-3-3-4-|
-4-4-4-4-4-4-4-4-|
-5-5-5-5-4-5-5-5-|
-5-5-5-5-5-5-5-5-|
-3-3-3-3-3-3-3-3-|

C                                F             G
I dont know if you would welcome me back with open arms through your
C
door.
                           F                    G               C
I don't expect anything but please know that i love you for sure

C       F            G  ..........
Please be strong


F                                  G
I miss your eye lashes and the streets where i grew tall
F                                           G
I miss getting piss wet through, getting to yours and getting warm
F                                   G
I miss stopping over, borrowing someone else's clothes
F                          G
so nice to be home you'd never have known, that i'd even been...

 C                               F                 F#m
-3-3-3-3-3-3-3-3-XXXX-          -1-1-1-1-1-1-1-1-XX-2----|
-5-5-5-5-5-5-5-5-XXXX-          -1-1-1-1-1-1-1-1-XX-2----|
-5-5-5-5-5-5-5-5-XXXX-  X2      -2-2-2-2-2-2-2-1-XX-3----|
-5-5-5-5-5-5-5-5-XXXX-          -3-3-3-3-3-3-3-3-XX-4----|
-3-3-3-3-3-3-3-3-XXXX-          -3-3-3-3-3-3-3-3-XX-4----|
-3-3-3-3-3-3-3-3-XXXX-          -1-1-1-1-1-1-1-1-XX-2----|

 G
-3-3-3-3-3-3-3-3-|
-3-3-3-3-3-3-3-4-|
-4-4-4-4-4-4-4-4-|
-5-5-5-5-4-5-5-5-|
-5-5-5-5-5-5-5-5-|
-3-3-3-3-3-3-3-3-|

C                                                          F
I miss the City I love but i've having an affair with L.A New York, dundee
G                                             C
and doncaster, if I may care , of course i do, of course i do
                F                             G
I was made for this place and i was made for you

I miss the City I love but i've having an affair with La, New york, dundee and
doncaster you should care well of couse you do, of course you do
but i was made for this place and i was made for you.


C C/B F G

C                               C/B
my heart is here, here to stay
my heart is here, here to stay
F
my heart is here, here to stay
G
my heart is here, here to stay
C                               C/B
my heart is here, here to stay
my heart is here, here to stay
F
my heart is here, here to stay
G
my heart is here and it's here to stay

Outro:

 C                               F                 F#m
-3-3-3-3-3-3-3-3-XXXX-          -1-1-1-1-1-1-1-1-XX-2----|
-5-5-5-5-5-5-5-5-XXXX-          -1-1-1-1-1-1-1-1-XX-2----|
-5-5-5-5-5-5-5-5-XXXX-  X2      -2-2-2-2-2-2-2-1-XX-3----|
-5-5-5-5-5-5-5-5-XXXX-          -3-3-3-3-3-3-3-3-XX-4----|
-3-3-3-3-3-3-3-3-XXXX-          -3-3-3-3-3-3-3-3-XX-4----|
-3-3-3-3-3-3-3-3-XXXX-          -1-1-1-1-1-1-1-1-XX-2----|

 G
-3-3-3-3-3-3-3-3-    -3----------------3----------|
-3-3-3-3-3-3-3-4-    -3----------------5----------|
-4-4-4-4-4-4-4-4-    -4-5-4------------5----------|
-5-5-5-5-4-5-5-5-    -5-----7-3-5-3-0--5----------|
-5-5-5-5-5-5-5-5-    -5----------------3----------|
-3-3-3-3-3-3-3-3-    -3----------------3----------|
Tap to rate this tab
# A B C D E F G H I J K L M N O P Q R S T U V W X Y Z