Song name
# A B C D E F G H I J K L M N O P Q R S T U V W X Y Z

The Courteeners - The Opener tab

Capo 5th Fret:

--------------------------------------|
-------------1-------1----------------|
------0-------------------------------|
---2------2------2-------0---0--------|
-3--3---3--3---3---3---3---3----------|
--------------------------------------|
                                        ****
-------------------------------|-------------------------|--------------------|
-------------1-----------------|-------------------------|--------------------|
------0--------------0---------|-------------------------|--------------------|
---2------2------2-------0---0-|----0---0---0----0----0--|---0-2--0-2---0-2---|
-3--3---3--3---3---3---3---3---|--3----3---3----3----3---|--------------------|
-------------------------------|-1----1---1----1----1----|-3-----3-----3------|

---------------|
---------------|
---------------|
---0-2-0--0----|
--------2------|
-3-------------|

-------------------------------|
-------------1-----------------|
------0--------------0---------| x2 then back into ****
---2------2------2-------0---0-|
-3--3---3--3---3---3---3---3---|
-------------------------------|


Then C...... look at chords i've done
Tap to rate this tab
# A B C D E F G H I J K L M N O P Q R S T U V W X Y Z