Song name
# A B C D E F G H I J K L M N O P Q R S T U V W X Y Z

The Courteeners - Bojangles tab

Chords - E shaped Barrs of Am, B, C

Intro:

-5--7--------------------5-5-7-8---------------------|-------------|
-5--7--------------------5-5-7-8---------------------|-------------|
-5--8-----9----9---7--7--5-5-8-9------9----9---7--7--|--7--7-------|
-7--9--10---10---9--9----7-7-9-10--10---10*---9--9----|9--9--------| x4
-7--9--------------------7-7-9-10--------------------|-------------|
-5--7--------------------5-5-7-8---------------------|-------------|

(*from this bit a second guitar comes in:)

---10-7---10-7---10-7---10-7-14-10------|
-7------7------7------7------------12s0-|
----------------------------------------|
----------------------------------------|
----------------------------------------|
----------------------------------------|

Am, B, C, B x2

Am
The Shambles are a shambles

the crooks and crafters hanging from the rafters

With the beat and the bangles oh
                                              Am  B  C  B  Am  B  C B
Bojangles, shirts and shouts and all of the angles

Am
Masses on mass go past

Head down, walk fast

This is where we live too
                                    Am  B  C  B
let the ladies and children through

Am              B
I'm struggling help me along
C                 B
Hold my arm as I sing you my song

I'm struggling help me along

Hold my arm as I song you my song


e-12---------------|
B---12-12-13-12----| x4
G---------------14-|

Am              B                  C             B
Tearing through St Anne's Square, Policeman down no one cares

Tearing through St Anne's Square, Policeman down no one cares

Tearing through St Anne's Square, Policeman down no one cares

Tearing through St Anne's Square, Policeman down no one cares

Am B C B x2


Am
The Shambles are a shambles

the crooks and crafters hanging from the rafters

With the beat and the bangles oh
                                              Am  B
Bojangles, shirts and shouts and all of the angles

---------------------5-5-7-8----------------------|
---------------------5-5-7-8----------------------|
------9----9---7--7--5-5-8-9------9----9---7--7---|
---10---10---9--9----7-7-9-10--10---10---9--9---9-|
---------------------7-7-9-10---------------------|
---------------------5-5-7-8----------------------|


Am              B
I'm struggling help me along
C                 B
Hold my arm as I sing you my song

I'm struggling help me along

Hold my arm as I song you my song

e-12---------------|
B---12-12-13-12----| x8
G---------------14-|


Am B C B x6 Am
Tap to rate this tab
# A B C D E F G H I J K L M N O P Q R S T U V W X Y Z