Song name
# A B C D E F G H I J K L M N O P Q R S T U V W X Y Z

The Courteeners - Not Nineteen Forever tab

I got this from the version they play at glastonbury.
I hope you can work it out, enjoy :) Jack

Main Riff/Verse - x6

e|--55555555555555555555555555555555--------------------------------|
B|--55555555555555556665555566655555--------------------------------|
G|--66666666777777777777777777777777--------------------------------|
D|------------------------------------------------------------------|
A|------------------------------------------------------------------|
E|------------------------------------------------------------------|


Chorus Lead - x3

e|--9-------10----------14--12--------------------------------------|
B|----10-------10---------------------------------------------------|
G|------------------------------------------------------------------|
D|------------------------------------------------------------------|
A|------------------------------------------------------------------|
E|------------------------------------------------------------------|


Back to Main Riff & Verse.

e|--5--5--5555555555555555------------------------------------------|
B|--5--5--6665555566655555------------------------------------------|
G|--6--7--7777777777777777------------------------------------------|
D|------------------------------------------------------------------|
A|------------------------------------------------------------------|
E|------------------------------------------------------------------|


Repeat Chorus

Bridge  x2

e|------------------------------------------------------------------|
B|--14141412121212-14141412121212-14141412121212-14151412-14151412--|
G|------------------------------------------------------------------|
D|------------------------------------------------------------------|
A|------------------------------------------------------------------|
E|------------------------------------------------------------------|


Quiet Chorus  x4

e|--55555555555555555555555555555555--------------------------------|
B|--55555555555555556665555566655555--------------------------------|
G|--66666666777777777777777777777777--------------------------------|
D|------------------------------------------------------------------|
A|------------------------------------------------------------------|
E|------------------------------------------------------------------|


Main Riff  x2

e|--55555555555555555555555555555555--------------------------------|
B|--55555555555555556665555566655555--------------------------------|
G|--66666666777777777777777777777777--------------------------------|
D|------------------------------------------------------------------|
A|------------------------------------------------------------------|
E|------------------------------------------------------------------|


Lead over Main Riff  x2

e|------------------------------------------------------------------|
B|--12121212121212121414141414141414151515-14141414-151515-14141414-|
G|--14141414141414141414141414141414141414-14141414-141414-14141414-|
D|------------------------------------------------------------------|
A|------------------------------------------------------------------|
E|------------------------------------------------------------------|


Outro

e|------------------------------------------------------------------|
B|--12---14---15------12---14---15----------------------------------|
G|--14---14---14------14---14---14----------------------------------|
D|------------------------------------------------------------------|
A|------------------------------------------------------------------|
E|------------------------------------------------------------------|
Tap to rate this tab
 
# A B C D E F G H I J K L M N O P Q R S T U V W X Y Z