Song name
# A B C D E F G H I J K L M N O P Q R S T U V W X Y Z

The Courteeners - Are You In Love With A Notion tab

-------------------------------------------------------------------------------
               ARE YOU IN LOVE WITH A NOTION? - The Courteeners
-------------------------------------------------------------------------------
Tabbed by: Federico Ribeiro

Tuning: Standard

Chords:
Am    = 577555
F     = 133211
G     = 355433
Dm    = x57765
C     = x35553


Intro
  Am                             F

e|-------------------------------------------------|
B|-------------------------------------------------|
G|-------------------------------------------------|
D|-------------------------------------------------|
A|-----------------7-7-7-5---7---8---8-8-8-8-8-8-8-|
E|-5-5-5-5-5-5-5-5---------------------------------|

                 G                               F                 G

e|---------------------------------------------------------------------------------|
B|---------------------------------------------------------------------------------|
G|---------------------------------------------------------------------------------|
D|---------------------------------7-7-7-5-------------------------5-5-5-5-5-5-5-5-|
A|-7-7-7-5---3-------------------------------7---8---8-8-8-8-8-8-8-----------------|
E|---------------3---3-3-3-3-3-3-3-------------------------------------------------|


Verse 1

Chords are: Am, C, Dm, G.

2nd guitar plays the root notes though:  e|--------------------------------|
                                         B|--------------------------------|
                                         G|--------------------------------|
                                         D|--------------------------------|
                                         A|--------------------------------|
                                         E|-5-x16---8-x16---10-x16---3-x16-|


Pre-chorus 1

Chords are: Dm, G, Dm, G, C.

2nd guitar plays the root notes though:  e|---------------------------------------|
                                         B|---------------------------------------|
                                         G|---------------------------------------|
                                         D|---------------------------------------|
                                         A|---------------------------------------|
                                         E|-10-x16---3-x16---10-x16---3-x8---8-x8-|


Chorus 1

Chords are: F, C, G, Am, F.

2nd guitar plays:   e|------------------------------------------|
                    B|-13-x16---17-x16---15-x16---17-x8---13-x8-|
                    G|------------------------------------------|
                    D|------------------------------------------|
                    A|------------------------------------------|
                    E|------------------------------------------|

Let ring last 13th note.


Verse 2

Same as verse 1, but 1st guitar plays the chords doing some picking.


Pre-chorus 2

Chords are: Dm, G, C.

2nd guitar plays the root notes though:  e|----------------------|
                                         B|----------------------|
                                         G|----------------------|
                                         D|----------------------|
                                         A|----------------------|
                                         E|-10-x16---3-x8---8-x8-|


Chorus 2

Same as previous chorus.


Break

  Am                             F

e|-------------------------------------------------|
B|-------------------------------------------------|
G|-------------------------------------------------|
D|-------------------------------------------------|
A|-----------------7-7-7-5---7---8---8-8-8-8-8-8-8-|
E|-5-5-5-5-5-5-5-5---------------------------------|

                 G                               F                 C

e|---------------------------------------------------------------------------------|
B|---------------------------------------------------------------------------------|
G|-----------------------------------------------------------------5-5-5-5-5-5-5-5-|
D|---------------------------------7-7-7-5-----------------------------------------|
A|-7-7-7-5---3-------------------------------7---8---8-8-8-8-8-8-8-----------------|
E|---------------3---3-3-3-3-3-3-3-------------------------------------------------|

  Am                             F

e|-------------------------------------------------|
B|-------------------------------------------------|
G|-------------------------------------------------|
D|-------------------------------------------------|
A|-----------------7-7-7-5---7---8---8-8-8-8-8-8-8-|
E|-5-5-5-5-5-5-5-5---------------------------------|

                 G                               F                 G

e|---------------------------------------------------------------------------------|
B|---------------------------------------------------------------------------------|
G|---------------------------------------------------------------------------------|
D|---------------------------------7-7-7-5-------------------------5-5-5-5-5-5-5-5-|
A|-7-7-7-5---3-------------------------------7---8---8-8-8-8-8-8-8-----------------|
E|---------------3---3-3-3-3-3-3-3-------------------------------------------------|


Verse 3

Same as verse 2, but this time the 1st changes a little bit the strumming pattern in 
some parts.


Pre-chorus 3

Same as pre-chorus 2, but strum the G chord once, make a pause and then strum the C 
chord once and slide to F.


Chorus 3

Same as previous chorus.


Outro

Same as break.

End on Am.
Tap to rate this tab
# A B C D E F G H I J K L M N O P Q R S T U V W X Y Z