Song name
# A B C D E F G H I J K L M N O P Q R S T U V W X Y Z

The Cranberries - Linger tab

B|----3----|
G|-2-------|x4   
D|---------|
A|---------|
E|---------|

Play the introduction 5 times

Guitar II play this during the introduction:
 
A6/7sus
e|-2----2--|
B|---------|
G|-0----0--|x2   
D|---------|
A|---------|
E|---------|
 D
e|-2----2--|
B|---------|
G|-2----2--|x2   
D|---------|
A|---------|
E|---------|

Verse:

Chords: D, D/E, A/Gb, A, C, C/B, C/D, G 
(v= play it down, i=play it up)     
   
   D    D/E D  D      D    D/E    D      A/Gb A      A      A/Gb A      
   v v  v i v  i v i  v v  v i v  i v i  v v  v i v  i v i  v v  v i v  
e|-2-2--0-0-2--2-2-2--2-2--0-0-2--2-2-2--2-2--0-0-0--0-0-0--2-2--0-0-0--
B|-3-3--2-2-3--3-3-3--3-3--3-3-3--3-3-3--2-2--2-2-2--2-2-2--2-2--2-2-2--
G|-2-2--3-3-2--2-2-2--2-2--2-2-2--2-2-2--2-2--2-2-2--2-2-2--2-2--2-2-2--
D|------4-4----------------4-4-----------2-2--2-2-2--2-2-2--2-2--2-2-2--
A|----------------------------------------------------------------------
E|----------------------------------------------------------------------

   A      C    C/B    C/B       
   i v i  v v  v i v  i v i
e|-0-0-0--0-0--0-0-0--0-0-0-
B|-2-2-2--1-1--0-0-0--0-0-0-
G|-2-2-2--0-0--0-0-0--0-0-0-
D|-2-2-2--2-2--2-2-2--2-2-2-
A|--------3-3--3-3-3--3-3-3-
E|--------------------------

   C/D  C/B    C/B    G    G      G      G    G      G
   v v  v i v  i v i  v v  v i v  i v i  v v  v i v  i v i
e|-3-3--0-0-0--0-0-0--3-3--3-3-3--3-3-3--3-3--3-3-3--3-3-3---------------
B|-3-3--0-0-0--0-0-0--3-3--3-3-3--3-3-3--3-3--3-3-3--3-3-3---------------
G|-0-0--0-0-0--0-0-0--0-0--0-0-0--0-0-0--0-0--0-0-0--0-0-0---------------
D|-2-2--2-2-2--2-2-2--0-0--0-0-0--0-0-0--0-0--0-0-0--0-0-0---------------
A|-3-3--3-3-3--3-3-3--2-2--2-2-2--2-2-2--2-2--2-2-2--2-2-2---------------
E|-----------------------------------------------------------------------

Chorus:

(same as verse)

Coda:
 A6/7sus              D
e|-----2-----2-----2-|----2----2------2-|
B|---3-----3-----3---|--3----3-----3----|
G|-0-----0-----0-----|2----2-----2------|x3
D|-------------------|------------------| 
A|-------------------|------------------|
E|-------------------|------------------|
 A6/sus7              D
e|-----2-----2-----2-|--2---------------|
B|---3-----3-----3---|--3---------------|
G|-0-----0-----0-----|--2---------------|x3
D|-------------------|------------------|
A|-------------------|------------------|
E|-------------------|------------------|


Lyrics:

Verse:
-----
If you, if you could return, don't let it burn, don't let it fade. 

I'm sure I'm not being rude, but it's just your attitude, 
It's tearing me apart, It's ruining everything. 

I swore, I swore I would be true, and honey, so did you. 
So why were you holding her hand? Is that the way we stand? 
Were you lying all the time? Was it just a game to you? 

Chorus:
------
But I'm in so deep. You know I'm such a fool for you. 
You got me wrapped around your finger, ah, ha, ha. 
Do you have to let it linger? Do you have to, do you have to, 
Do you have to let it linger? 

Verse:
-----
Oh, I thought the world of you. 
I thought nothing could go wrong, 
But I was wrong. I was wrong. 
If you, if you could get by, trying not to lie, 
Things wouldn't be so confused and I wouldn't feel so used, 
But you always really knew, I just wanna be with you. 

Chorus:
------
But I'm in so deep. You know I'm such a fool for you. 
You got me wrapped around your finger, ah, ha, ha. 
Do you have to let it linger? Do you have to, do you have to, 
Do you have to let it linger? 

And I'm in so deep. You know I'm such a fool for you. 
You got me wrapped around your finger, ah, ha, ha. 
Do you have to let it linger? Do you have to, do you have to, 
Do you have to let it linger? 

You know I'm such a fool for you. 
You got me wrapped around your finger, ah, ha, ha. 
Do you have to let it linger? Do you have to, do you have to, 
Do you have to let it linger? 


Esta canci?n est? dedicada a Diana C.
"Perd?name por no haberte dicho lo que sent?a"

Tap to rate this tab
# A B C D E F G H I J K L M N O P Q R S T U V W X Y Z