Song name
# A B C D E F G H I J K L M N O P Q R S T U V W X Y Z

The Creetins - High Old Time tab

Artist: The Creetins
Song: High old Time
Album: (The) City screams my Name

Question:p.heg@gmx.de

Tuning: 1/2 step down


intro
(some effecks)
e#|------------------------------|
B#|------------------------------|
G#|--9/-11-11-11-11-11-11-11-11--| 6x
D#|------------------------------|
A#|--7/-9--9--9--9--9--9--9--9---|
E#|------------------------------|


chorus

e#|-----------------------------------|
B#|-----------------------------------|
G#|----------4-4-4-4------------------|  4x
D#|--6-6-6-6-4-4-4-4-4-4-4-4-4-4-4-4--|
A#|--6-6-6-6-2-2-2-2-4-4-4-4-4-4-4-4--|
E#|--4-4-4-4---------2-2-2-2-2-2-2-2--|


Verse

e#|-------------------------------|
B#|-------------------------------|
G#|------4-(4)----------4-(4)-----|  4x
D#|--6-6-4-(4)-2~---2-2-4-(4)-4---|
A#|--6-6-2-(2)-2~---2-2-2-(2)-4~--|
E#|--4-4-------0~---0-0-------2~--|


second Guitar
(after two times)
e#|----------------------|
B#|----------------------|
G#|--11-*--(play along)--|
D#|--11------------------|
A#|--9-------------------|
E#|----------------------|



chorus


bridge

e#|---------------------|
B#|---------------------|
G#|---------------------| 2x
D#|--4/6-6-6-6-6-6-6-6--|
A#|--4/6-6-6-6-6-6-6-6--|
E#|--2/4-4-4-4-4-4-4-4--|


verse


chorus


2 bridge

e#|---------------------|
B#|---------------------|
G#|---------------------|
D#|--4/6~~~~~~~~~~~~~~--|
A#|--4/6~~~~~~~~~~~~~~--|
E#|--2/4~~~~~~~~~~~~~~--|


chorus


Outro

e#|-------------------------------------|
B#|-------------------------------------|
G#|--------------------4---6------------|
D#|--4/6-6-6-6-6-6-6-6-4-2-6-6-9-9////--|
A#|--4/6-6-6-6-6-6-6-6-2-2-4-6-9-9////--|
E#|--2/4-4-4-4-4-4-4-4---0---4-7-7////--|
Tap to rate this tab
 
# A B C D E F G H I J K L M N O P Q R S T U V W X Y Z