Song name
# A B C D E F G H I J K L M N O P Q R S T U V W X Y Z

The Cribs - Saturday Night Facts Of Life tab

By: awawa_poiio@hotmail.com

Tuning: Standard

e|---------------------------|
B|------------------7--------|
G|-4--7--4-7--4--7-----7-4-7-| x4
D|---------------------------|
A|---------------------------|
E|---------------------------|

e|------------------------------------------------------|
B|-7----------5-----7--7-7-7-7----------5-----10--8-7-7-|
G|----7--4-7-----7--7--7-7-7----7--4-7-----7------------|
D|------------------------------------------------------|
A|------------------------------------------------------|
E|------------------------------------------------------|

Repeat throughout the song 5 times and then . . .


Outro [Just can't feel alright (you know you can)]
e|--------------------------------------|
B|-10-8-7---7-7-7-10---10-8-7---7-7-7---|
G|--------------------------------------|
D|--------------------------------------|
A|--------------------------------------|
E|--------------------------------------|
Tap to rate this tab
# A B C D E F G H I J K L M N O P Q R S T U V W X Y Z