Song name
# A B C D E F G H I J K L M N O P Q R S T U V W X Y Z

The Cribs - Tonight tab

Here are the guitar parts for Tonight, Men's Needs B Side.
It's pretty easy to figure out which parts go where.



Intro
|-----5-------5---|-----3--------5---|-----5-------5---|-----3--------5----|
|---6---6---5---5-|---3---3----5---5-|---6---6---5---5-|---3---3----5---5--|
|-5-------5-------|-3-------/5-------|-5-------5-------|-3-------/5--------|
|-----------------|------------------|-----------------|-------------------|
|-----------------|------------------|-----------------|-------------------|
|-----------------|------------------|-----------------|-------------------|


|-----5-------5---|-5-5-6-8-5-x-x-x-x-x-x-|
|---6---6---5---5-|-3-3-3---5-x-x-x-x-x-x-|
|-5-------5-------|-3-3-3---5-x-x-x-x-x-x-|
|-----------------|-----------------------|
|-----------------|-----------------------|
|-----------------|-----------------------|


   Verses
|--5-x-x-5-x-x-5-x-x-5-x-x-|-8-x-x-8-x-x-----5-8-5---|
|--6-x-x-6-x-x-5-x-x-5-x-x-|-5-x-x-5-x-x---5-------8-|
|--5-x-x-5-x-x-5-x-x-5-x-x-|-5-x-x-5-x-x-5-----------|
|--------------------------|-------------------------|
|--------------------------|-------------------------|
|--------------------------|-------------------------|


|-5-x-x-5-x-x-5-x-x-5-x-x-|-8-x-x-8-x-x-----5-8-5------|
|-6-x-x-6-x-x-5-x-x-5-x-x-|-5-x-x-5-x-x---5-------8----|
|-5-x-x-5-x-x-5-x-x-5-x-x-|-5-x-x-5-x-x-5--------------|
|-------------------------|----------------------------|
|-------------------------|----------------------------|
|-------------------------|----------------------------|


|-5-x-x-5-x-x-5-x-x-5-x-x-|-8-x-x-8-x-x-----5-8-5---|
|-6-x-x-6-x-x-5-x-x-5-x-x-|-5-x-x-5-x-x---5-------8-|
|-5-x-x-5-x-x-5-x-x-5-x-x-|-5-x-x-5-x-x-5-----------|
|-------------------------|-------------------------|
|-------------------------|-------------------------|
|-------------------------|-------------------------|


|-5-5-5-5-3-3-3-3-|-5-6-8-5--3-----|
|-3-3-3-3-3-3-3-3-|-3-3------3-----|
|-3-3-3-3-3-3-3-3-|-3-3------3-----|
|-----------------|----------------|
|-----------------|----------------|
|-----------------|----------------|


 Chorus
|-5-x-x-5-x-x-5-x-x-5-x-x-|-5-x-x-5-x-x-5-6-8-x-|
|-6-x-x-6-x-x-5-x-x-5-x-x-|-3-x-x-3-x-x-3-3-----|
|-5-x-x-5-x-x-5-x-x-5-x-x-|-3-x-x-3-x-x-3-3-----|
|-------------------------|---------------------|
|-------------------------|---------------------|
|-------------------------|---------------------|


|-5-x-x-5-x-x-5-x-x-5-x-x-|-5-x-x-5-x-x-5-6-8-x-|
|-6-x-x-6-x-x-5-x-x-5-x-x-|-3-x-x-3-x-x-3-3-----|
|-5-x-x-5-x-x-5-x-x-5-x-x-|-3-x-x-3-x-x-3-3-----|
|-------------------------|---------------------|
|-------------------------|---------------------|
|-------------------------|---------------------|


|-5-x-x-5-x-x-5-x-x-5-x-x-|-5-x-x-5-x-x-5-6-8-x-|
|-6-x-x-6-x-x-5-x-x-5-x-x-|-3-x-x-3-x-x-3-3-----|
|-5-x-x-5-x-x-5-x-x-5-x-x-|-3-x-x-3-x-x-3-3-----|
|-------------------------|---------------------|
|-------------------------|---------------------|
|-------------------------|---------------------|


|-5-5-5-5-3-3-3-3-|-5-6-8-5--3---|
|-3-3-3-3-3-3-3-3-|-3-3------3---|
|-3-3-3-3-3-3-3-3-|-3-3------3---|
|-----------------|--------------|
|-----------------|--------------|
|-----------------|--------------|


 Pre-Verse
|-----5-------5---|-----3--------5---|
|---6---6---5---5-|---3---3----5---5-|
|-5-------5-------|-3-------/5-------|
|-----------------|------------------|
|-----------------|------------------|
|-----------------|------------------|


|-----5-------5---|-5-5-6-8-5-x-x-x-x-x-x--|
|---6---6---5---5-|-3-3-3---5-x-x-x-x-x-x--|
|-5-------5-------|-3-3-3---5-x-x-x-x-x-x--|
|-----------------|------------------------|
|-----------------|------------------------|
|-----------------|------------------------|


That's basically it, just match the sections up to the parts in the song.
Tap to rate this tab
# A B C D E F G H I J K L M N O P Q R S T U V W X Y Z